Slayer - Final Command Chords & Tabs

 

Final Command Chords & Tabs

Slayer Chords & Tabs

Version: 1 Type: Tab 0 ratings
1 star 2 stars 3 stars 4 stars 5 stars
comments

Final Command Tab

#----------------------------------PLEASE NOTE---------------------------------#
#This file is the author's own work and represents their interpretation of the #
#song. You may only use this file for private study, scholarship, or research. #
#------------------------------------------------------------------------------##
From: tvdw@cs.kun.nl (Th.P. vd Weide)

The Final Command-Slayer
[ Tab from: http://www.guitartabs.cc/tabs/s/slayer/final_command_tab.html ]
--------------------------------------------------------------
--------------------------------------------------------------
--------------------------------------------------------------
-0-0-0-3-2-0-3-2-0-0-0-0-3-2-0-5-3-0-0-0-0-3-2-0-3-2-0---3-5--
-------------------------------------------------------3-1-3--
-------------------------------------------------------1------
        p p   p p         p p   p p         p p   p p
 play this 4 times then play:
--------------------------------------------------------------
--------------------------------------------------------------
--------------------------------------------------------------
-0-0-0-3-2-0-0-0-0-5-3-0-0-0-0-3-2-0---3----------------------
-------------------------------------3-1----------------------
-------------------------------------1------------------------
        p p         p p         p p           
play this 4 times too and then play
--------------------------------------------------------------
--------------------------------------------------------------
-0-0-0-3-2-0-0-0-0-5-3-0-0-0-0-3-2-0---3----------------------
-------------------------------------3-1---------------------- 
-------------------------------------1------------------------
--------------------------------------------------------------
        p p         p p         p p
play this 2 times
--------------------------------------------------------------
--------------------------------------------------------------
--------------------------------------------------------------
-0-0-0-3-2-0-0-0-0-5-3-0-0-0-0-3-2-0---3----------------------
-------------------------------------3-1----------------------
-------------------------------------1------------------------
        p p         p p         p p

--------------------------------------------------------------
--------------------------------------------------------------
--------------------------------------------------------------
-0-0-0-3-2-0-0-0-0-5-3-0-0-0-0-3-2-0--------------------------
-------------------------------------3-2-0--------------------
-------------------------------------------3------------------
        p p         p p         p p   p p
This was the intro, I'll post the rest another time
Peter tvdw@cs.kun.nl
--
 Theo van der Weide            | Computing Science Institute
 InterNet: tvdw@zeus.cs.kun.nl | University of Nijmegen
 Fax:      +31-80-553450       | Voice:    +31-80-653361 
 Ftp:       ftp.cs.kun.nl      | Directory: publ/csi/SoftEng/InfSyst/articles 

Comments