Slayer - Fight Till Death Chords & Tabs

 

Fight Till Death Chords & Tabs

Slayer Chords & Tabs

Version: 1 Type: Bass Tab 0 ratings
1 star 2 stars 3 stars 4 stars 5 stars
comments

Fight Till Death Bass Tab

Band- Slayer
Song- Fight Till Death

Intro/Verse-Part
G:---------------------------------|
D:---------------------------------|
A:--------------------------3--1---|
E:-3-3-3-3-3-3-3-3--4-4-4-4--------|

Chorus-Part I
G:-------------------------------|
D:-------------------------------|
A:-------------4----------4--3---|
E:-1-1-1-1-1-1----1-1-1-1--------|

Chorus-Part II
G:------------------------------------|
D:--------------------------5---------|
A:---5-6-----7-8--------6-5---6-------|
E:-3-----5-6-----7--8-8---------4-6---|

Chorus-Part III
G:------------------------------------|
D:------------------------------------|
A:------------------------------------|
E:-3-3-3-3-3-3-3-3--6-6-6-6-2-2-2-2---|

Guitar-Solo
G:---------------------------------|
D:--------------------------1--1---|
A:-3-3-3-3-3-1-3-3--3-1-3-3--------|
E:---------------------------------|

[ Tab from: http://www.guitartabs.cc/tabs/s/slayer/fight_till_death_btab.html ]
G:---------------------------------|
D:---------------------------------|
A:--------------------------1--1---|
E:-3-3-3-3-3-1-3-3--3-1-3-3--------|

Outro-Part I
G:-------------------------------------------------------------|
D:-------------------------------------------------------------|
A:----------------1--1-1-1-1--1--3--3-3-3-3--3-----------------|
E:-3--3-3-3-3--3--------------------------------2--2-2-2-2--2--|

Outro-Part II
G:-------------------------------------------------------------|
D:-------------------------------------------------------------|
A:-0-0-0-0-----------------------------------1--1-1-1-1--------|
E:----------0--1--1-1-1-1--1--3--3-3-3-3--3--------------------|

G:-------------------------------------------------------------|
D:-------------------------------------------------------------|
A:-3--3-3-3-3--3--------------------------------1--1-1-1-1--1--|
E:----------------2--2-2-2-2--2--3--3-3-3-3--3-----------------|

G:-----------------------------------------|
D:-----------------------------------------|
A:-----------------------------------------|
E:-2--2-2-2-2--2--3--3-3-3-3-3-3-3-3-3-3---|
Comments