Slayer - Fictional Reality Chords & Tabs

 

Fictional Reality Chords & Tabs

Slayer Chords & Tabs

Version: 1 Type: Tab 1 rating
1 star 2 stars 3 stars 4 stars 5 stars
comments

Fictional Reality Tab

                                            fictional reality
                                              by kerry king
                                                tabbed by 
                                              sadistikslave

intro play 4 times
e--------------------------------]---------------------------------
b--------------------------------]---------------------------------
g--------------------------------]---------------------------------
d--------------------------------]---------------------------------
a-----------0--------------2--1--]----------0---------------1---0--
e--4-0-2-----3-0---3-1-4----3----]--4-0-2-----3-0---3-0-1-----2----
[ Tab from: http://www.guitartabs.cc/tabs/s/slayer/fictional_reality_tab.html ]
                                    _______________________________________
verse play 7 times                 [1-7 times played 
e----------------------------------]--------------------------------------
b----------------------------------]--------------------------------------
g----------------------------------]--------------------------------------
d-----------5-4--------------------]----------5-4-------------4-----------
a-----------5-4-----6--------------]----------5-4-----6-------4-----------
e---0-0-0-------0---6-0-0---0-0-0--]--0-0-0-------0---6-0-0-----5-4-------
_____________________________________
[on 8th time play this instead of other part
e-----------------------------------]
b-----------------------------------]
g-----------------------------------]
d----------5-4----------------------]
a----------5-4-------6--------------]
e--0-0-0--------0----6--0-0---2-1-0-]


pre chorus
e----------------------------------]-----------------------------------------
b----------------------------------]-----------------------------------------
g----------------------------------]-----------------------------------------
d----------------------------------]----------------------------1------------
a--0----------------0--------------]--0----------------0--------1------------
e----4-3----2-1-0-----4-3----2-1-0 ]----4-3---2-1-0------4-3------2-1--------



chorus
e-----------------------------------]------------------------------------------
b-----------------------------------]------------------------------------------
g-----------------------------------]------------------------------------------
d-----------------------------------]------------------------------------------
a-----------------------------------]-------------------3---2------------------
e--0-0-2---0-0-0---3-0-2---0-0-0----]--5-0-3---0-0-0------0------5-3-2---------



the boneyard riff
e-----------------------------------]----------------------------------]]--------
b-----------------------------------]----------------------------------]]--------
g-----------------------------------]----------------------------------]]--------
d-----------------------------------]----------------------------------]]--------
a--3-------2-------1----------------]--3--------2-------1-------4------]]---2----
e----2-1-----2-1-----2-1----4-2-1---]----2-1------2-1-----2-1---4------]]---0----

Comments