Slayer - Expendable Youth Chords & Tabs

 

Expendable Youth Chords & Tabs

Slayer Chords & Tabs

Version: 2 Type: Bass Tab 0 ratings
1 star 2 stars 3 stars 4 stars 5 stars
comments

Expendable Youth Bass Tab

   
**********************************************************************
This tab file was downloaded from THE ABYSS - the complete Slayer site                      http://www.slaytanic.com/
**********************************************************************

                       Expendable Youth - Slayer
                       =========================

Tune down 1/2 step (Eb,Ab,Db,Gb)

 111 bpm
|-----------------|-----------------|-----------------|-----------------|
|-----------------|-----------------|-----------------|-----------------|
|-----------------|-----------------|-----------------|-----------------|
|-0---0---0---0---|-0---0---0---0---|-0---0---0---0---|-0---0---0---0---|

|-----------------|-----------------|-----------------|-----------------||
|-----------------|-----------------|-----------------|-----------------||
|-----------------|-----------------|-----------------|-----------------||
|-0---0---0---0---|-0---0---0---0---|-0---0---0---0---|-0---0---0---0---||

|-----------------|-----------------|-----------------|-----------------|
|-----------------|-----------------|-----------------|-----------------|
|-----------------|-----------------|-----------------|-----------------|
|-0000000000000000|-0000000000000000|-0000000000000000|-0000000000000000|

|-----------------|-----------------|-----------------|-----------------||
|-----------------|-----------------|-----------------|-----------------||
|-----------------|-----------------|-----------------|-----------------||
|-0000000000000000|-0000000000000000|-0000000000000000|-0000000000000000||

|-----------------|-----------------|-----------------|-----------------|
|-----------------|-------------543-|-----------------|-----------------|
|-----7-------876-|-----7-----------|-----7-------876-|-----7-----------|
|-0-00----0-00----|-0-00----0-00----|-0-00----0-00----|-0-00----0000321-|

|-----------------|-----------------|-----------------|-----------------||
|-----------------|-------------543-|-----------------|-----------------||
|-----7-------876-|-----7-----------|-----7-------876-|-----7-----------||
|-0-00----0-00----|-0-00----0-00----|-0-00----0-00----|-0-00----0000321-||

 verse 1
|-----------------|-----------------|-----------------|-----------------|
|-----------------|-------------543-|-----------------|-----------------|
|-----7-------876-|-----7-----------|-----7-------876-|-----7-----------|
|-0-00----0-00----|-0-00----0-00----|-0-00----0-00----|-0-00----0000321-|

|-----------------|-----------------|-----------------|-----------------||
|-----------------|-------------543-|-----------------|-----------------||
|-----7-------876-|-----7-----------|-----7-------876-|-----7-----------||
|-0-00----0-00----|-0-00----0-00----|-0-00----0-00----|-0-00----0000321-||

 chorus
|-----------------|-----------------|-----------------|-----------------|
|-----------------|-----------------|-----------------|-----------------|
|-----------------|-----------------|-------------1---|-----------------|
|-2-----------3---|-00000000003-003-|-2---------------|-00000000001-001-|

|-----------------|-----------------|-----------------||
|-----------------|-----------------|-----------------||
|-----------------|-----------------|-----------------||
|-2-----------3---|-00000000003-003-|-2-------5---4-3-||

|-----------------|-----------------|-----------------|-----------------|
|-----------------|-----------5-----|-----------------|-----------------|
|-----7-----8---6-|-----7---------9-|-----7-----8---6-|-----7-----------|
|-00-0--00-0--00--|-00-0--00-0--00--|-00-0--00-0--00--|-00-0--00-03-002-|

|-----------------|-----------------|-----------------|-----------------||
|-----------------|-----------5-----|-----------------|-----------------||
|-----7-----8---6-|-----7---------9-|-----7-----8---6-|-----7-----------||
|-00-0--00-0--00--|-00-0--00-0--00--|-00-0--00-0--00--|-00-0--00-03-002-||

 verse 2
|-----------------|-----------------|-----------------|-----------------|
|-----------------|-------------543-|-----------------|-----------------|
|-----7-------876-|-----7-----------|-----7-------876-|-----7-----------|
|-0-00----0-00----|-0-00----0-00----|-0-00----0-00----|-0-00----0000321-|
[ Tab from: http://www.guitartabs.cc/tabs/s/slayer/expendable_youth_btab_ver_2.html ]
|-----------------|-----------------|-----------------|-----------------||
|-----------------|-------------543-|-----------------|-----------------||
|-----7-------876-|-----7-----------|-----7-------876-|-----7-----------||
|-0-00----0-00----|-0-00----0-00----|-0-00----0-00----|-0-00----0000321-||

 chorus
|-----------------|-----------------|-----------------|-----------------|
|-----------------|-----------------|-----------------|-----------------|
|-----------------|-----------------|-------------1---|-----------------|
|-2-----------3---|-00000000003-003-|-2---------------|-00000000001-001-|

|-----------------|-----------------|-----------------||
|-----------------|-----------------|-----------------||
|-----------------|-----------------|-----------------||
|-2-----------3---|-00000000003-003-|-2-----------35--||

|-----------------|-----------------|-----------------|-----------------|
|---------------5-|-------7-654-----|---------------5-|-------7-654---8-|
|-----78------78--|-----78-----65---|-----78------78--|-----78-----654--|
|-0-00----0-00----|-0-00---------876|-0-00----0-00----|-0-00------------|

|-----------------|-----------------|-----------------|-----------------||
|---------------5-|-------7-654-----|---------------5-|-------7-654-----||
|-----78------78--|-----78-----65---|-----78------78--|-----78-----543--||
|-0-00----0-00----|-0-00---------876|-0-00----0-00----|-0-00----------43||

 guitar solo
|-----------------|-----------------|-----------------|-----------------|
|-----------------|-----------------|-----------------|-----------------|
|----------h------|----------h----1-|----------h------|----------h------|
|-2222222202222222|-22222222022222--|-2222222202222222|-222222220222223-|

|-----------------|-----------------|-----------------|-----------------||
|-----------------|-----------------|-----------------|-----------------||
|----------h------|----------h----1-|----------h------|----------h------||
|-2222222202222222|-22222222022222--|-2222222202222222|-2222222202223---||

|-----------------|-----------------|-----------------|-----------------|
|-----------------|-----------------|-----------------|-----------------|
|----------h------|----------h----4-|----------h------|----------h------|
|-5555555535555555|-55555555355555--|-5555555535555555|-555555553555556-|

|-----------------|-----------------|-----------------|-----------------||
|-----------------|-----------------|-----------------|-----------------||
|----------h------|----------h----4-|----------h------|----------h------||
|-5555555535555555|-55555555355555--|-5555555535555555|-5555555535556---||

 chorus
|-----------------|-----------------|-----------------|-----------------|
|-----------------|-----------------|-----------------|-----------------|
|-----------------|-----------------|-------------1---|-----------------|
|-2-----------3---|-00000000003-003-|-2---------------|-00000000001-001-|

|-----------------|-----------------|-----------------||
|-----------------|-----------------|-----------------||
|-----------------|-----------------|-----------------||
|-2-----------3---|-00000000003-003-|-2-------5---4-3-||

|-----------------|-----------------|-----------------|-----------------||
|-----------------|-----------5-----|-----------------|-----------------||
|-----7-----8---6-|-----7---------9-|-----7-----8---6-|-----7-----------||
|-00-0--00-0--00--|-00-0--00-0--00--|-00-0--00-0--00--|-00-0--00-03-001-||

 chorus
|-----------------|-----------------|-----------------|-----------------|
|-----------------|-----------------|-----------------|-----------------|
|-----------------|-----------------|-------------1---|-----------------|
|-2-----------3---|-00000000003-003-|-2---------------|-00000000001-001-|

|-----------------|-----------------|-----------------||
|-----------------|-----------------|-----------------||
|-----------------|-----------------|-----------------||
|-2-----------3---|-00000000003-003-|-2-----------35--||

|-----------------|-----------------|-----------------|-----------------|
|---------------5-|-------7-654-----|---------------5-|-------7-654---8-|
|-----78------78--|-----78-----65---|-----78------78--|-----78-----654--|
|-0-00----0-00----|-0-00---------876|-0-00----0-00----|-0-00------------|

|-----------------|-----------------|-----------------|-----------------|
|---------------5-|-------7-654-----|---------------5-|-------7-654-----|
|-----78------78--|-----78-----65---|-----78------78--|-----78-----65---|
|-0-00----0-00----|-0-00---------876|-0-00----0-00----|-0-00---------876|

|-----------------||
|-654-------------||
|----654----------||
|-------320-------||

Comments