Slayer - Dracula 2001 Soundtrack Chords & Tabs

 

Dracula 2001 Soundtrack Chords & Tabs

Slayer Chords & Tabs

Version: 1 Type: Tab 0 ratings
1 star 2 stars 3 stars 4 stars 5 stars
comments

Dracula 2001 Soundtrack Tab

Dracula 2001 Soundtrack
This is a really easy song from Slayer


First Riff (Played 3 times)

---------------------------
---------------------------
---------------------------
---------------------------
---------------------------
--0--0--3--3--2--2--1--1---

Then:

-----------------------------
-----------------------------
-----------------------------
-----------------------------
-----------------------------
--0--0--3--3--2--0--2--3--3--

Riff 2:
[ Tab from: http://www.guitartabs.cc/tabs/s/slayer/dracula_2001_soundtrack_tab.html ]
-----------------------------
-----------------------------
-----------------------------
-----------------------------
--3--------3----------3------
--1-0-0-0--1-0-0-0-0--1-0-0--

Then after playing this several times its continued with:

-------------------
-------------------
-------------------
-------------------
------2-3-2-1------
--0-0-2-3-2-1------

at 1:58 is played this: with variations on the solo

----------------------------------
----------------------------------
----------------------------------
----------------------------------
--------2-3-4-5-4-3---------------
--0-0-0-2-3-4-5-4-3---------------

And that´s all the song.

Submited by: Jonatan Daniel U.
Comments