Slayer - Dissident Aggressor Chords & Tabs

 

Dissident Aggressor Chords & Tabs

Slayer Chords & Tabs

Version: 1 Type: Tab 0 ratings
1 star 2 stars 3 stars 4 stars 5 stars
comments

Dissident Aggressor Tab

   
                             Dissident Agressor
                            Performed by Slayer
                      From the Album "South of Heaven
                         Transcribed by Lordnatas

Tis me Lordnatas here once again tabbing out yet another Slayer Tune.This one
is fairly easy,but i know there are some of you out there to lazy to figure
it out yourselfs so here goes.Tuneing is E flat.

Intro
Guitar 1

D-9--------------------------------------------------------------
A-7----------------------------------------------xxxxxxxxxxxxxxxx
E-0----------------------------------------------xxxxxxxxxxxxxxxx
                                                   pick slide
Guitar 2

A-2---2---2---2---|-2---2---2---2---|-2---2---2---2---|-2---2---2---2---
E-0-0-0-0-0-0-0-0-|-0-0-0-0-0-0-0-0-|-0-0-0-0-0-0-0-0-|-0-0-0-0-0-0-0-0-
    .   .   .   .     .   .   .   .     .   .   .   .     .   .   .   .

Verses(both guitars)

          r               r
A-2---------------2------------7-
E-0-0000-3-0-0000-0-0000-3-0-0-5- (this plays a total of 7 times)
    ....     ....   ....     .

          r       r r
D------------5-4-4-2-0-4--------
A-2--------------------2-------- (substitute this riff on the 8th time)
E-0-0000-3-0--------------------
    ....  .

Chorus

Guitar 1
     
D--------------------------------------------------5----------
A-2------2------2------------2------2-----------5-5--7---------(plays a total
E-0-0000-0-0000-0-0000-5-6-7-0-0000-0-0000-5-6-7-7-------------Of 2 times)
    ....   ....   ....         ....   ....

Guitar 2


E---------12------------12------------------------------------
B---------15------------15------------------------------------
G         **            **
D
A Guitar 2 plays the same as guitar 1 except were noted
E
      **= Bend the bottom note(15) 1 step untill it matches the pitch
          of the top note(12)


2nd chorus

Its the same as the first but on the second time add this to the end

G----------5----------------
D----5---5---7--------------
A-567--7--------------------
E---------------------------

Solo

The riff behind the solo is the same as the first chorus except that it is
played on A,D and G instead of E,A,D.

After chous


Guitar one                   ______________   ______________
                            | 1.             |2.
G-9--7-9-|-9--7-9-|-9-7-9\4-5--------------||-5---------------
A-7--5-7-|-7--5-7-|-7-5-7\2-3----5-4-------||-3------5--4-----
E--------|--------|----------000-3-2-------||----000-3--2-----
                             ...                 ...
Guitar 2

G-9--7-9------9--7-9------9--7-9\4-5-12-11-||-5------12-11----
A-7--5-7------7--5-7------7--5-7\2-3-10-9--||-3--333-10-9-----
E-------00000-------00000------------------||-----------------
        .....       .....                        ...



2nd chorus

same as first except guitar 2 plays

E-15---------15-
B-18---------18-
G **         **
D
A
E


Ending

Guitar 1
[ Tab from: http://www.guitartabs.cc/tabs/s/slayer/dissident_aggressor_tab.html ]
G--------------------5-----------------------------------------------
D---------5------5-5--7---------5--------5---------(9)---------------
A-----5-5--7-567--7---------5-5---7-567----------5--7----------------
E-567--7----------------567--7--------------567----------------------

Guitar

E-19------------(12 times)
B-22------------
G **
D
A
E

Solo
approximation in pitches, figure out the whammy part yourself its easy

   whammy 1.5 bends, ends with 2.5 whammy bar      dive 1, 3.5 up 5
|---------------------------------|-------------|-------------------|
|-harm----------------------------|-19-\-11-----|------------0------|
|-~2.5----------------------------|-------------|-------------------|
|---------------------------------|-------------|-------------------|
|------------------------------0--|-------------|-------------------|
|---------------------------------|-------------|-------------------|


      dive 4   whammy shakes at 6    dive .5      up .5, down 1
|--13--------|-h20-h21------------|--5---------|------------------|----|
|------------|--------------------|-harmonic---|-harmonic---------|----|
|------------|----------h17--h16--|------------|--4--4------------|----|
|------------|--------------------|------------|------------------|----|
|------------|--------------------|-------0----|-----------0------|----|
|------------|--------------------|------------|------------------|----|

  depress 1.5 before striking then raise 1.5 and drop 1
|-----------------------------------------------------------------|
|-----------------------------------------------------------------|
|--0--------------------------------------------------------------|
|-----------------------------------------------------------------|
|-----------------------------------------------------------------|
|-----------------------------------------------------------------|

  dive 3.5         depress 4 before striking    dive 5.5    pre-depress 1.5
|----------------|-17------------------------|-20------------17---|
|--harmonic------|---------------------------|------------18------|
|---4------------|---------------------------|--------------------|
|----------------|---------------------------|--------------------|
|---------4---0--|---------------------------|--------------------|
|----------------|---------------------------|--------------------|

  .5 bends        go up 1.5
|-----------|-----------------------------------------------------|
|-harmonic--|----harmonic-----------------------------------------|
|--4--------|--3--4-----------------------------------------------|
|-----------|-----------------------------------------------------|
|-----------|-----------------------------------------------------|
|-----------|-----------------------------------------------------|


  Well there it is.Told ya it was easy.Heres a hint.If you turn your stereos
  pan to the left or right you will here the seperate guitar parts.If you
  are not a soloist(like myself)i suggest turning it to the left speaker once
  you get the hang of it,and jam out with it.Most Slayer is set up like this.
  Have Fun!!!

  Comments/Corrections

  L0RDNATAS@AOL.COM
Comments