Slayer - Disciple Chords & Tabs

 

Disciple Chords & Tabs

Slayer Chords & Tabs

Version: 1 Type: Tab 0 ratings
1 star 2 stars 3 stars 4 stars 5 stars
comments

Disciple Tab

   
"Disciple"

Written by Jeff Hanneman

Lyrics by Kerry King


Tabbed by Tero Saikkonen from Finland
    - tsslayer@luukku.com -
 - www.pureheavymetal.cjb.net -

Tune guitars down 1  steps
6=C# 3=E
5=F# 2=G#
4=B  1=C#



INTRO
 G E  G A# A E
---------------
---------------
---------------
---------------
-5-2--5-8--7-2-
-3-0--3-6--5-0-

MAINRIFF
 E               B F E   
 P.M._________                  ___   ___   ___  
-------------------------    ---------------------
-------------------------    ---------------------
-------------------------    ---------------------
-----------------9------- x8 -9-----8-----7-------
-2-2-2---2-2-2-----8-7---    ---8-7---7-6---6-5---
-0-0-0---0-0-0-----------    ---------------------

VERSERIFF ("Drones since the dawn of time......")
 P.M.___________________________|
---------------------------------
---------------------------------
---------------------------------
---------------------------------
---------------------------------
-3-1-0-1-4-3-0-1-3-1-0-1-4-3-0-1-


CHORUS ("God hates us all!! God Hates us all!!......")
gtr I (Kerry)
 P.M._____________________________________
----------------------------------------------
----------------------------------------------
----------------------------------------------
-2-2-2---2-2-2---------------2-2-2---2-2-2----
-2-2-2---2-2-2---------------2-2-2---2-2-2----
-0-0-0---0-0-0---------------0-0-0---0-0-0----

gtr II (Jeff)
-0--0--0--0--
-------------
-9~-9~-9~-9~-
-------------
-------------
-------------

VERSE II ("You know it's true God hates this place......")
        P.M._____
------------------
------------------
------------------
------------------
-33336--2-2-2-2-2-
-11114--0-0-0-0-0-

VERSERIFF I
 P.M.___________________________|
---------------------------------
---------------------------------
---------------------------------
---------------------------------
---------------------------------
-3-1-0-1-4-3-0-1-3-1-0-1-4-3-0-1-

CHORUS ("God hates us all!! God Hates us all!!")
gtr I (Kerry)
 P.M._____________________________________
-----------------------------     ----------------------------
-----------------------------     ----------------------------
-----------------------------     ----------------------------
-2-2-2---2-2-2---------------     -2-2-2---2-2-2--------------
-2-2-2---2-2-2---------------     -2-2-2---2-2-2--------------
-0-0-0---0-0-0---------------     -0-0-0---0-0-0--------------
                               |                               |
gtr II (Jeff)                  x2                              x2 
 P.M.______________________    |                               |
-----------------------------     ----0-----0-----0-----0-----
-----------------------------     ----------------------------
-----------------------------     -9~----9~----9~----9~----9~-
-2-2-2---2-2-2---------------     ----------------------------
-2-2-2---2-2-2---2--2--2--2--     ----------------------------
-0-0-0---0-0-0---0--0--0--0--     ----------------------------


MAINRIFF
 E               B F E   
 P.M._________ 
-------------------------
-------------------------
-------------------------
-----------------9------- x8
-2-2-2---2-2-2-----8-7---
-0-0-0---0-0-0-----------


SOLORIFF
 F   G# E               F
-------------------    --------
-------------------    --------
------------------- X8 --------
-------------------    --------
-33336662222222222-    -3------
-11114440000000000-    -1------

RIFF (after first solo)
 G E     G E     G F#    G E     G E     G A#    G E     G E     G F#    G E     G E     G E     A#
gtr I (Kerry)
---------------------------------------------------------------------------------------------------
---------------------------------------------------------------------------------------------------
---------------------------------------------------------------------------------------------------
---------------------------------------------------------------------------------------------------
-55------55------5544444455------55------5588888855------55------5544444455------55------55------8-
-3300000033000000332222223300000033000000336666663300000033000000332222223300000033000000330000006-
[ Tab from: http://www.guitartabs.cc/tabs/s/slayer/disciple_tab.html ]
gtr II (Jeff)                              hits: x       x               x       x       x       x
---------------------------------------------------------------------------------------------------
---------------------------------------------------------------------------------------------------
---------------------------------------------------------------------------------------------------
---------------------------------------------------------------------------------------------------
-------------------------------------------------5-------5---------------5-------5-------5-------8-
-------------------------------------------------3-------3---------------3-------3-------3-------6-


RIFF  ("Pessimist, Terrorist targeting the next mark.....")
 E                            A#  A   E   F
-------------------------    ------------------ |2|
-------------------------    ------------------ |T|
-------------------------    ------------------ |I|
------------------------- x3 ------------------ |M|
-----------------77777777    -8888777722223333- |E|
-0000000000000000--------    -6666555500001111- |S|


RIFF
 E   G   F#  E F#G   B   A#
----------------------------------
----------------------------------
----------------------------------
---------------------------------- x2
-22225555444422445555999988888888-
-00003333222200223333777766666666-


RIFF ("Man made virus infecting the world......")
 G E     G E     G F#    G E     G E     G A#    
-------------------------------------------------
-------------------------------------------------
-------------------------------------------------
------------------------------------------------- x3
-55------55------5544444455------55------55888888
-330000003300000033222222330000003300000033666666


RIFF ("I hate everyone equally......")
 F   G#  E       F   G#E
------------------------------------
------------------------------------
------------------------------------
------------------------------------ x8
-3333666622222222333366222222222222-
-1111444400000000111144000000000000-

RIFF ("I never said I wanted to be God's disciple......")
 E   G   F#  E F#G   B   A#            E   G   F#  E F#G   B   A#
----------------------------------    ----------------------------------
----------------------------------    ----------------------------------
----------------------------------    ----------------------------------
---------------------------------- x2 ----------------------------------
-22225555444422445555999988888888-    -2---5---4---2-4-5---9---8--------
-00003333222200223333777766666666-    -0---3---2---0-2-3---7---6--------


RIFF (Jeff)
 G     A#    F#                  G     A#    A     F#
 P.M.___________________________________________________________
-----------------------------------------------------------------
-----------------------------------------------------------------
-----------------------------------------------------------------
-----------------------------------------------------------------
-5-5-5-8-8-8-4-4-4-4-4-4-4-4-4-4-5-5-5-8-8-8-7-7-7-4-4-4-4-4-4-4-
-3-3-3-6-6-6-2-2-2-2-2-2-2-2-2-2-3-3-3-6-6-6-5-5-5-2-2-2-2-2-2-2-

 G     A#    A     A#    F#      G     A#    F#
 _______________________________________________________________|
-----------------------------------------------------------------
-----------------------------------------------------------------
-----------------------------------------------------------------
-----------------------------------------------------------------
-5-5-5-8-8-8-7-7-7-8-8-8-4-4-4-4-5-5-5-8-8-8-4-4-4-4-4-4-4-4-4-4-
-3-3-3-6-6-6-5-5-5-6-6-6-2-2-2-2-3-3-3-6-6-6-2-2-2-2-2-2-2-2-2-2-


RIFF ("I reject this fuckin' race, I despise this fuckin' place......") 

 G     A#    F#                  G     A#    A     F#
-----------------------------------------------------------------
-----------------------------------------------------------------
-----------------------------------------------------------------
-----------------------------------------------------------------
-5-5-5-8-8-8-4-4-4-4-4-4-4-4-4-4-5-5-5-8-8-8-7-7-7-4-4-4-4-4-4-4-
-3-3-3-6-6-6-2-2-2-2-2-2-2-2-2-2-3-3-3-6-6-6-5-5-5-2-2-2-2-2-2-2-

 G     A#    A     A#    F#      G     A#    F#   _____________________________________
                                                 |1st time           |2nd time
-----------------------------------------------------------------  |2|-P.M.___________|
-----------------------------------------------------------------  |T|-----------------
-----------------------------------------------------------------  |I|-----------------
-----------------------------------------------------------------  |M|-----------------
-5-5-5-8-8-8-7-7-7-8-8-8-4-4-4-4-5-5-5-8-8-8-4-4-4-4-4-4-4-4-4-4-  |E|-4-4-4-4-4-4-4-4-
-3-3-3-6-6-6-5-5-5-6-6-6-2-2-2-2-3-3-3-6-6-6-2-2-2-2-2-2-2-2-2-2-  |S|-2-2-2-2-2-2-2-2-


				T H E   E N D 
                 
                                  TABBED BY:
                         T E R O   S A I K K O N E N
                            -TSSLAYER@LUUKKU.COM-
Comments