Slayer - Desire Chords & Tabs

 

Desire Chords & Tabs

Slayer Chords & Tabs

Version: 2 Type: Tab 0 ratings
1 star 2 stars 3 stars 4 stars 5 stars
comments

Desire Tab

   
DESIRE
By: Slayer
Off Of The 1998 Album Diabolus In Musica
Transcribed By: Mike Bower
Music By: Jeff Hanneman
Tuning:
6- C#
5- F#
4- B
3- E
2- G#
1- C#
*= Palm Muting
.= 10th fret
Clean 
|--------12----------13---------------------------------------|
|-----10----10----11------------------------------------------|
|-------------------------------------------------------------|
|-------------------------------------------------------------|
|---0-----------0---------------------------------------------|
|-------------------------------------------------------------|
									Play 4X
|-------------------------------------------------------------|
|-------------------------------------------------------------|
|-------9-------8--------12---------15------------------------|
|-----7---7---6---6---10----10---13----13---------------------|
|---0-------0-------0----------0------------------------------|
|-------------------------------------------------------------|
Distortion
|--------------------------------------|
|--------------------------------------|
|------9--------10---------------------|
|----7---7----8------------------------|
|--0--------0--------------------------|
|---------------------------x\---------|
Rhy. Fig 1					play 3x
|-----------------------------------------|
|-----------------------------------------|
|------9-------8--------12---------15-----|
|----7---7---6---6---10----10---13----13--|
|--0-------0-------0----------0-----------|
|-----------------------------------------|
ending for Rhy. Fig 1
|-----------------------|
|-----------------------|
|-------12---------15\--|
|----10----10---13------|
|--0----------0---------|
|-----------------------|
Rhy Fig 2
|---------------------------------------------|
|---------------------------------------------|
|---------------------------------------------|
|-----------------------------------------3---|
|--2------1----------3--------------------1---|
|--0-0--0-0-0--0-0-0-1--0--0--0--0--0-0-0-----|
	*  *   *  * * *    *  *  *  *  * * *
ok, now, guitar 2 sustains an E5 chord, and guitar 1 plays Rhy. Fig 2 again.
Then, both guitars play this
|---------------------------------------|
|---------------------------------------|
|---------------------------------------|
|--------2------------------------------|
|-----------2-----1-------5--8--7-------|
|--0--0--------0------0-----------------|
   *  *        *      * 
|-----------------------------------|
|-----------------------------------|
|-----------------------------------|
|--------2--------------------------|
|-----------2--1----3//.---9--------|
|--0--0----------0--1//8---7--------|
   *  *          *
|---------------------------------|
|---------------------------------|
|---------------------------------|
|---------------------------------|
|--7-7-7---6-6-6---1-1-1---4-4-4--|
|--5-5-5---4-4-4---1-1-1---4-4-4--|

play this riff during the second guitar solo, and for the rest of the song
|-----------------------------------------------|
|-----------------------------------------------|
|-----------------------------------------------|
|--------------------------------------------3--|
|--2--------1--------------3-----------------1--|
|--0--0--0--0--0--0-0-0--0-1--0--0--0--0-0-0----|
      *  *     *  * * *  *    *  *  *  * * *
|-----------------------------------------------|
|-----------------------------------------------|
|-----------------------------------------------|
|---------------------------------------------3-|
|--2--------1------------3--------------------1-|
|--0--0--0--0--0--0-0-0--1--0--0--0--0--0-0-0---|
      *  *     *  * * *     *  *  *  *  * * *                        

[ Tab from: http://www.guitartabs.cc/tabs/s/slayer/desire_tab_ver_2.html ]
Comments