Slayer - Deaths Head Chords & Tabs

 

Deaths Head Chords & Tabs

Slayer Chords & Tabs

Version: 2 Type: Bass Tab 0 ratings
1 star 2 stars 3 stars 4 stars 5 stars
comments

Deaths Head Bass Tab

Death's Head - Slayer
tabbed by: ryan b

Riff A: (4 times)
Ab--------------
C#--0-0-0-6-3--

Riff B: (once)
Ab-------------------------------------------
C#--0-0-0-6-3--0-0-0-6-3--4p3p0-4p3p0-4p3p0--

Riff A: (16 times)

Riff C: (once)
Ab-------1-0-------------
C#--0---------1---3-4-4--

Riff D: (once)
Ab-------1-0---------------------
C#--0---------1---3-4p3p0-4p3p0--

Riff A: (16 times)
Riff C: (once)
Riff D: (once)
***rest for guitar***
Riff A: (16 times)
[ Tab from: http://www.guitartabs.cc/tabs/s/slayer/deaths_head_btab_ver_2.html ]
Riff E: (4 times)
Ab--------------------------------
C#--2-2-2-1-1-0-3--2-2-2-1-1-0-3--

***rest for guitar***

Riff E: (twice)
Riff A: (16 times)

Riff F: (4 times)
Ab---------2-2-2-1-1-1---------
C#--2-2-2---------------5-5-5--

Riff G: (10 times)
Ab---------2-2-2-1-1-1-----------------------------------
C#--2-2-2---------------5-5-5--3-3-3--0-0-0-1-1-1-2-2-2--

***rest for guitar***

Riff H: (once)
Ab---------------------------------------------
C#--2-2-2-------2-2-2------2-2-2--(pickslide)--

Riff G: (4 times)

Riff I: (once)
Ab---------------------
C#--0-0-0-1-1-1-2-2-2--
Comments