Slayer - Dead Skin Mask Chords & Tabs

 

Dead Skin Mask Chords & Tabs

Slayer Chords & Tabs

Version: 1 Type: Tab 1 rating
1 star 2 stars 3 stars 4 stars 5 stars
comments

Dead Skin Mask Tab

Slayer
Dead Skin Mask
From the 1990 Album Seasons In the Abyss
Transcribed By: Mike Bower
Tune Down 1/2 Step
Intro
|----------------------------------------------|
|----------------------------------------------|
|------------------------------------9---------|
|------9-10-----9-10-----9-10---9-10-----------|
|----7--------8--------7------8----------------|
|--0--------0--------0-------------------------|
   *        *        *
Gtrs 1and 2 switch this riff off 4x
Endings on Intro riff:
|----------------------------|
|----------------------------|
|----------------------------|
|--7--8----------------------|
|--7--8----------------------|
|--5--6---3-1-0-1------------|
          *------|
|----------------------------------------------------------|
|----------------------------------------------------------|
|----------------------------------------------------------|
|--------1-------------2-------------3-----7-8-------------|
|--2-----1-------------2-------------3-----7-8-------------|
|--0-0-0---0-0-3-1-0-1---0-0-3-1-0-1---0-0-5-6-3-1-0-1-----|
     * *   *----------|  *----------|  * *     *------|
|------------------------------------------------------------|
|------------------------------------------------------------|
|------------------------------------------------------------|
|---------------------------------------------7--8-----------|
|--2----------(2)---------------2--------(2)--7--8-----------|
|--0----------(0)------3-1-0-1--0--------(0)--5--6-3-1-0-1---|
                       *------|                    *------|
|-------------------------------------------------|
|-------------------------------------------------|
|----------------8--------------------------------|
|---------9-8------9------------9-8-(8)\--3--5----|
|-------7------------10-------7-----------3--5----|
|--0--0--------0---------0--0-------------1--3----|
   *  *        *         *  *
After Solo:
|------------------------------------------------|
|------------------------------------------------|
|------------------------------------------------|
|------------------0-------------------3--5------|
|------------1-------1--------------1--3--5------|
|--0---0-0-0----0------2--0---0-0-0----1--3------|
   *   * * *    *         *   * * *
*= Palm Muting 
/,\= Slide, up, down
Ok, all the riffs are here, so you should be able to figure out what goes
where. Drop me a line at guitargod8852@hotmail.com
[ Tab from: http://www.guitartabs.cc/tabs/s/slayer/dead_skin_mask_tab.html ]
Comments