Slayer - Dead Skin Mask Chords & Tabs

 

Dead Skin Mask Chords & Tabs

Slayer Chords & Tabs

Version: 2 Type: Bass Tab 0 ratings
1 star 2 stars 3 stars 4 stars 5 stars
comments

Dead Skin Mask Bass Tab

   
**********************************************************************
This tab file was downloaded from THE ABYSS - the complete Slayer site                      http://www.slaytanic.com/
**********************************************************************

                       Dead Skin Mask - Slayer
                       =======================

Tune down 1/2 step (Eb,Ab,Db,Gb)

 109 bpm
|-----------------|-----------------|-----------------|-----------------|
|-----------------|-----------------|-----------------|-----------------|
|-----------------|-----------------|-----------------|-----------------|
|-----------------|-----------------|-----------------|-----------------|

|-----------------|-----------------|-----------------|-----------------|
|-----------------|-----------------|-----------------|-----------------|
|-----------------|-----------------|-----------------|-----------------|
|-----------------|-----------------|-----------------|-----------------|

|-----------------|-----------------|-----------------|-----------------|
|-----------------|-----------------|-----------------|-----------------|
|-----------------|-----------------|-----------------|-----------------|
|-----0-------0---|-----0-------0---|-----0-------0---|-----0-------0---|
  1   2   3   4  etc.

|-----------------|-----------------|-----------------|-----------------||
|-----------------|-----------------|-----------------|-----------------||
|-----------------|-----------------|-----------------|-----------------||
|-----0-------0---|-----0-------0---|-----0-------0---|-----0---56------||

|-----------------|-----------------|-----------------|-----------------|
|-----------------|-----------------|-----------------|-----------------|
|-----------------|-----------------|-----------------|-----------------|
|-0-0-0-0-0-1-1-0-|-0-0-0-0-1-1-1-0-|-0-0-0-0-0-1-1-0-|-0-0-0-0-1-1-1-0-|

|-----------------|-----------------|-----------------|-----------------||
|-----------------|-----------------|-----------------|-----------------||
|-----------------|-----------------|-----------------|-----------------||
|-0-0-0-0-0-1-1-0-|-0-0-0-0-1-1-1-0-|-0-0-0-0-0-1-1-0-|-0-0-0-0-56------||

|-----------------|-----------------|-----------------|-----------------|
|-----------------|-----------------|-----------------|-----------------|
|-----1-------2---|-----3-----------|-----1-------2---|-----3-----------|
|-0-00--003101--00|-3101--0056-\3101|-0-00--003101--00|-3101--0056-\3101|

|-----------------|-----------------|-----------------|-----------------||
|-----------------|-----------------|-----------------|-----------------||
|-----1-------2---|-----3-----------|-----1-------2---|-----3-----------||
|-0-00--003101--00|-3101--0056-\3101|-0-00--003101--00|-3101--0056-\3101||

 verse 1
|-----------------|-----------------|-----------------|-----------------|
|-----------------|-----------------|-----------------|-----------------|
|-----------------|-----------------|-----------------|-----------------|
|-0-0-0---0-0-0---|-0-0-0---0-0-3101|-0-0-0---0-0-0---|-0-0-0---56-\3101|

|-----------------|-----------------|-----------------|-----------------||
|-----------------|-----------------|-----------------|-----------------||
|-----------------|-----------------|-----------------|-----------------||
|-0-0-0---0-0-0---|-0-0-0---0-0-3101|-0-0-0---0-0-0---|-0-0-0---56-\3101||

 chorus
|-----------------|-----------------|-----------------|-----------------|
|-----------------|-----------------|-----------------|-----------------|
|-----------------|-----------------|-----------------|-----------------|
|-0-0-0-0-0-1-1-0-|-0-0-0-0-1-1-1-0-|-0-0-0-0-0-1-1-0-|-0-0-0-0-1-1-1-0-|

|-----------------|-----------------|-----------------|-----------------||
|-----------------|-----------------|-----------------|-----------------||
|-----------------|-----------------|-----------------|-----------------||
|-0-0-0-0-0-1-1-0-|-0-0-0-0-1-1-1-0-|-0-0-0-0-0-1-1-0-|-0-0-0-0-56------||

 verse 2
|-----------------|-----------------|-----------------|-----------------|
|-----------------|-----------------|-----------------|-----------------|
|-----------------|-----------------|-----------------|-----------------|
|-0-0-0---0-0-0---|-0-0-0---0-0-3101|-0-0-0---0-0-0---|-0-0-0---56-\3101|

|-----------------|-----------------|-----------------|-----------------||
|-----------------|-----------------|-----------------|-----------------||
|-----------------|-----------------|-----------------|-----------------||
|-0-0-0---0-0-0---|-0-0-0---0-0-3101|-0-0-0---0-0-0---|-0-0-0---56-\3101||

 bridge
|-------------8----|-----------------|-------------8----|-----------------|
|------9-8-----9---|------9-8-\------|------9-8-----9---|------9-8-\------|
|-----7---------10-|-----7-----------|-----7---------10-|-----7-----------|
|-0--0-------0-----|-0--0------1--3--|-0--0-------0-----|-0--0------1--3--|
  1   2   3   4      1   2   3   4  etc.

|-------------8----|-----------------|-------------8----|-----------------||
|------9-8-----9---|------9-8-\------|------9-8-----9---|------9-8-\------||
|-----7---------10-|-----7-----------|-----7---------10-|-----7-----------||
|-0--0-------0-----|-0--0------1--3--|-0--0-------0-----|-0--0------1--3--||
[ Tab from: http://www.guitartabs.cc/tabs/s/slayer/dead_skin_mask_btab_ver_2.html ]
 guitar solo
|-----------------|-----------------|-----------------|-----------------|
|-----------------|-----------------|-----------------|-----------------|
|-----------------|-----------------|-----------------|-----------------|
|-0-0-0---0-0-0---|-0-0-0---0-0-3101|-0-0-0---0-0-0---|-0-0-0---56-\3101|

|-----------------|-----------------|-----------------|-----------------|
|-----------------|-----------------|-----------------|-----------------|
|-----------------|-----------------|-----------------|-----------------|
|-0-0-0---0-0-0---|-0-0-0---0-0-3101|-0-0-0---0-0-0---|-0-0-0---56-\3101|

|-----------------|-----------------|-----------------|-----------------|
|-----------------|-----------------|-----------------|-----------------|
|-----------------|-----------------|-----------------|-----------------|
|-0-0-0---0-0-0---|-0-0-0---0-0-3101|-0-0-0---0-0-0---|-0-0-0---56-\3101|

|-----------------|-----------------|-----------------|-----------------||
|-----------------|-----------------|-----------------|-----------------||
|-----------------|-----------------|-----------------|-----------------||
|-0-0-0---0-0-0---|-0-0-0---0-0-3101|-0-0-0---0-0-0---|-0-0-0---56-\3101||

|-----------------|-----------------|-----------------|-----------------|
|-----------------|-----------------|-----------------|-----------------|
|-----1-------2---|-----3-----------|-----1-------2---|-----3-----------|
|-0-00--000000--00|-0000--0056-\3101|-0-00--000000--00|-0000--0056-\3101|

|-----------------|-----------------|-----------------|-----------------|
|-----------------|-----------------|-----------------|-----------------|
|-----1-------2---|-----3-----------|-----1-------2---|-----3-----------|
|-0-00--000000--00|-0000--0056-\3101|-0-00--000000--00|-0000--0056-\3101|

 free time
|-----------------|-----------------|-----------------|-----------------||
|-----------------|-----------------|-----------------|-----------------||
|-----------------|-----------------|-----------------|-----------------||
|-0---------------|(0)--------------|(0)--------------|(0)--------------||

 in time
|-----------------|-----------------|-----------------|-----------------|
|-----------------|-----------------|-----------------|-----------------|
|-----------------|-----------------|-----------------|-----------------|
|-----------------|-----------------|-0---------------|(0)--------------|

|-----------------|-----------------|-----------------|-----------------||
|-----------------|-----------------|-----------------|-----------------||
|-----------------|-----------------|-----------------|-----------------||
|(0)--------------|(0)--------------|(0)--------------|(0)------56------||

 verse 3
|-----------------|-----------------|-----------------|-----------------|
|-------------0---|-----------------|-------------0---|-----------------|
|--------1-----1--|--------1--------|--------1-----1--|--------1--------|
|-0--000-----0--2-|-0--000----1--3--|-0--000-----0--2-|-0--000----1--3--|

|-----------------|-----------------|-----------------|-----------------||
|-------------0---|-----------------|-------------0---|-----------------||
|--------1-----1--|--------1--------|--------1-----1--|--------1--------||
|-0--000-----0--2-|-0--000----1--3--|-0--000-----0--2-|-0--000----1--3--||

|-------------8----|-----------------|-------------8----|-----------------|
|------9-8-----9---|------9-8-\------|------9-8-----9---|------9-8-\------|
|-----7---------10-|-----7-----------|-----7---------10-|-----7-----------|
|-0--0-------0-----|-0--0------1--3--|-0--0-------0-----|-0--0------1--3--|
  1   2   3   4      1   2   3   4  etc.

|-------------8----|-----------------|-------------8----|-----------------||
|------9-8-----9---|------9-8-\------|------9-8-----9---|------9-8-\------||
|-----7---------10-|-----7-----------|-----7---------10-|-----7-----------||
|-0--0-------0-----|-0--0------1--3--|-0--0-------0-----|-0--0------1--3--||

 chorus
|-----------------|-----------------|-----------------|-----------------|
|-----------------|-----------------|-----------------|-----------------|
|-----------------|-----------------|-----------------|-----------------|
|-0-0-0-0-0-1-1-0-|-0-0-0-0-1-1-1-0-|-0-0-0-0-0-1-1-0-|-0-0-0-0-1-1-1-0-|

|-----------------|-----------------|-----------------|-----------------|
|-----------------|-----------------|-----------------|-----------------|
|-----------------|-----------------|-----------------|-----------------|
|-0-0-0-0-0-1-1-0-|-0-0-0-0-1-1-1-0-|-0-0-0-0-0-1-1-0-|-0-0-0-0-1-1-1-0-|

|-----------------|-----------------|-----------------|-----------------|
|-----------------|-----------------|-----------------|-----------------|
|-----------------|-----------------|-----------------|-----------------|
|-0-0-0-0-0-1-1-0-|-0-0-0-0-1-1-1-0-|-0-0-0-0-0-1-1-0-|-0-0-0-0-1-1-1-0-|

|-----------------|-----------------|-----------------|-----------------|
|-----------------|-----------------|-----------------|-----------------|
|-----------------|-----------------|-----------------|-----------------|
|-0-0-0-0-0-1-1-0-|-0-0-0-0-1-1-1-0-|-0-0-0-0-0-1-1-0-|-0-0-0-0-56-\3101|

|-----------------|-----------------|-----------------|-----------------||
|-----------------|-----------------|-----------------|-----------------||
|-----------------|-----------------|-----------------|-----------------||
|-0---------------|(0)--------------|(0)--------------|(0)--------------||

Comments