Slayer - Ddamm Chords & Tabs

 

Ddamm Chords & Tabs

Slayer Chords & Tabs

Version: 1 Type: Tab 0 ratings
1 star 2 stars 3 stars 4 stars 5 stars
comments

Ddamm Tab

This tab file was downloaded from THE ABYSS - the complete Slayer site
                      http://www.slaytanic.com/


SLAYER

Drunk Drivers Against Mad Mothers (Ddamm)
>From the album "Undisputed Attitude"

************************************************
Tabbed by David Lichter (lichter@ebox.tninet.se)
************************************************
Tune down 1/2 step!


   Swerwing through the street...
Eb|------------------------------|
Bb|------------------------------|
Gb|------------------------------|
Db|-----------8--7-7--6-6--------|
Ab|--5-5--6---6--5-5--4-4--------|
Eb|--3-3--4----------------------|
[ Tab from: http://www.guitartabs.cc/tabs/s/slayer/ddamm_tab.html ]
Hit her car, smash her up...
Eb|---------------------|
Bb|---------------------|
Gb|---------------------|
Db|---------------------|
Ab|-----5--4------------|
Eb|--3-------4----------|


Solo


Can't find any beer, it`s way past...
Eb|------------------------------|
Bb|------------------------------|
Gb|------------------------------|
Db|-----------8--7-7--6-6--------|
Ab|--5-5--6---6--5-5--4-4--------|
Eb|--3-3--4----------------------|


Hit her car, smash her up...
Eb|---------------------|
Bb|---------------------|
Gb|---------------------|
Db|---------------------|
Ab|-----5--4------------|
Eb|--3-------4----------|Any comments, questions mail me at lichter@ebox.tninet.se
Comments