Slayer - Darkness Of Christ Chords & Tabs

 

Darkness Of Christ Chords & Tabs

Slayer Chords & Tabs

Version: 1 Type: Tab 0 ratings
1 star 2 stars 3 stars 4 stars 5 stars
comments

Darkness Of Christ Tab

   
Band- Slayer
Song- Darkness Of Christ

 repeat
Eb|----------------|
Bb|----------------|
F#|----------------|
C#|----------------|
G#|------2-2-2-2-2-|
C#|-2-3--0-0-0-0-0-|


   repeat
Eb|--------------------|
Bb|--------------------|
F#|--------------------|
C#|--------------------|
G#|--------------------|
C#|-3p2p0-3p0--0-0-0-0-|



Eb|-------------------------|
Bb|-------------------------|
F#|-------------------------|
C#|-------------------------|
G#|-2-2-2-2-2---------4-4-4-|
C#|-0-0-0-0-0---6-6-6-6-6-6-|



Eb|-17b-17b-17b-17b-17b-17b-|
Bb|-20b-20b-20b-20b-20b-20b-|
F#|-------------------------|
C#|-------------------------|
G#|-------------------------|
C#|-------------------------|

            pick
          -------------
Eb|-20b-20b-20-20-20-20-|
Bb|-23b-23b-23-23-23-23-|
F#|---------------------|
C#|---------------------|
G#|---------------------|
C#|---------------------|


   play this under the solo
Eb|--------------------|
Bb|--------------------|
F#|--------------------|
C#|--------------------|
G#|--------------------|
C#|-3p2p0-3p0--0-0-0-0-|


      ---------------------- wah
Eb|-21b-21-21-21-21-21-21-21---2-3-5-3-2------------------------------------|
Bb|--------------------------------------5-2-3-5-3-2------------------------|
F#|--------------------------------------------------4-1-2-4-2-1------------|
C#|--------------------------------------------------------------4-1-2-4-2-1|
G#|-------------------------------------------------------------------------|
C#|-------------------------------------------------------------------------|

[ Tab from: http://www.guitartabs.cc/tabs/s/slayer/darkness_of_christ_tab.html ]
                                                             pick slide down
Eb|--------0-2-3-2-0--------------------------------------------------|
Bb|------------------5-2-3-5-3-2--------------------------------------|
F#|------------------------------4-2-1-4-2-1--------------------------|
C#|-------------------------------------------4-1-2-4-2-1----X/-------|
G#|-4-2-1----------------------------------------------------X/-------|
C#|-------------------------------------------------------------------|


   repeat
Eb|----------------|
Bb|----------------|
F#|----------------|
C#|----------------|
G#|------2-2-2-2-2-|
C#|-2-3--0-0-0-0-0-|


Eb|--------------|
Bb|--------------|
F#|--------------|
C#|--------------|
G#|--8-8-8-8-8---|
C#|--6-6-6-6-6---|

   repeat
Eb|--------------------|
Bb|--------------------|
F#|--------------------|
C#|--------------------|
G#|--------------------|
C#|-3p2p0-3p0--0-0-0-0-|


   repeat
Eb|----------------|
Bb|----------------|
F#|----------------|
C#|----------------|
G#|------2-2-2-2-2-|
C#|-2-3--0-0-0-0-0-|


Eb|--------------|
Bb|--------------|
F#|--------------|
C#|--------------|
G#|--6-6-6-6-6---|
C#|--4-4-4-4-4---|

   repeat
Eb|--------------------|
Bb|--------------------|
F#|--------------------|
C#|--------------------|
G#|--------------------|
C#|-3p2p0-3p0--0-0-0-0-|



Eb|-------------------------|
Bb|-------------------------|
F#|-------------------------|
C#|-------------------------|
G#|-2-2-2-2-2---------4-4-4-|
C#|-0-0-0-0-0---6-6-6-6-6-6-|


   repeat
Eb|--------------------|
Bb|--------------------|
F#|--------------------|
C#|--------------------|
G#|--------------------|
C#|-2-3--0-0--1-2--0-0-|


Eb|----------------------------------|
Bb|----------------------------------|
F#|----------------------------------|
C#|----------------------------------|
G#|--------------------------------6-|
C#|-2--5--4-4---1--4--3-3---0-2-0--4-|


Eb|-------------------------|
Bb|-------------------------|
F#|-------------------------|
C#|-------------------------|
G#|-2-2-2-2-2---------4-4-4-|
C#|-0-0-0-0-0---6-6-6-6-6-6-|


Eb|--------------|
Bb|--------------|
F#|--------------|
C#|--------------|
G#|--8-8-8-8-8---|
C#|--6-6-6-6-6---|


Eb|--------------------|
Bb|--------------------|
F#|--------------------|
C#|--------------------|
G#|--------------------|
C#|-3p2p0-3p0--0-0-0-0-|



Eb|-17b-17b-17b-17b-17b-17b-|
Bb|-20b-20b-20b-20b-20b-20b-|
F#|-------------------------|
C#|-------------------------|
G#|-------------------------|
C#|-------------------------|
Comments