Slayer - Crionics Chords & Tabs

 

Crionics Chords & Tabs

Slayer Chords & Tabs

Version: 1 Type: Bass Tab 0 ratings
1 star 2 stars 3 stars 4 stars 5 stars
comments

Crionics Bass Tab

   
Band- Slayer
Song- Crionics

Tuning:E,A,D,G 



Riff 1a
E|------------------------------|
A|--2-2-2-2-2-2-2-2-2-2-2-2-3-5-|
D|------------------------------|
G|------------------------------|

Riff 1b
E|------------------------------|
A|--2-2-2-2-2-2-2-2-2-2-2-2-5-5-|
D|------------------------------|
G|------------------------------|

Riff 1c
E|------------------------|
A|--2-2-2-2-2-2-0-0-0-0-0-|
D|------------------------|
G|------------------------|

Verse Riff 1
E|-----------------------------------|
A|--333333333333333-5555555555555555-|
D|-----------------------------------|
G|-----------------------------------|

Verse Riff 2
E|------3--------3---|
A|--2-0---5--2-0---5-|
D|-------------------|
G|-------------------|

Riff 2a
E|-------------------------|
A|--2-2-2-2-2-2-2-2-2--2-0-|
D|-------------------------|
G|-------------------------|

Riff 2b
E|--3-3-3-3-3-3-3-3-3--3-2-|
A|-------------------------|
D|-------------------------|
G|-------------------------|
[ Tab from: http://www.guitartabs.cc/tabs/s/slayer/crionics_btab.html ]
Riff 2c
E|--3-3-3-3-3-3-3-3-3--3-2-|
A|-------------------------|
D|-------------------------|
G|-------------------------|

Fill 1
E|--7--5-7--5-3--2-3-|
A|-------------------|
D|-------------------|
G|-------------------|

Riff 3
E|-----------------------------------|
A|--2-2-2-2-2-2-2-2-2-2-2--5-5-5-5-5-|
D|-----------------------------------|
G|-----------------------------------|

                                x2
E|-------------------------------|
A|--2-5-2-5-2-7-7--2-5-2-5-2-7-7-|
D|-------------------------------|
G|-------------------------------|

Order:

Riff 1b(after guitar goes thru Riffs 1a and 1b twice)
Riff 1a + Riff 1c (once)
Riff 1a + Riff 1b (twice)
Verse Riff 1
Riff 1a, Verse Riff 1, Riff 1a, Riff 1a
Verse Riff 2
Riff 1a + 1c, 2 times Riff 1a + 1b
Verse Riff 1, Riff 1a, Verse Riff 1, 2 times Riff 1a
Then Verse Riff 2(twice), Riff 1a plus Riff 3
Then Riff 2(A,b,& c)
Riff 1a + 1c, then Riff 2(A,b,& c)
Then (Riff 2a x2 then 2b and 2c one time)x2
Fill 1
(Riff 2a x2 then 2b and 2c one time)x alot
Fill 1
(Riff 2a x2 then 2b and 2c one time) until the end of song
Comments