Slayer - Chemical Warfare Chords & Tabs

 

Chemical Warfare Chords & Tabs

Slayer Chords & Tabs

Version: 2 Type: Tab 0 ratings
1 star 2 stars 3 stars 4 stars 5 stars
comments

Chemical Warfare Tab

Chemical Warfare. 
                                   Slayer
                                             


--------------------------------------------------------------------------------

Intro:
------
                                                                   Play 2x
eb---||(Guitar1)-----------------------|--------------------------------||
Bb---||--------------------------------|--------------------------------||
Gb---||--------------------------------|--------------------------------||
Db---||--------------------------------|--------------------------------||
Ab---||--------------------------------|--------------------------------||
Eb---||0---0---0---0---0---0---0---0---|0-0-0---0---0-0-0---0---0-0-0---||
       .   .   .   .   .   .   .   .    . . .   .   . . .   .   . . .     

                                                              Play 6x
||(Guitars1&2)--------------------|--------------------------------||
||--------------------------------|--------------------------------||
||--------------------------------|--------------------------------||
||--------------------------------|--------------------------------||
||--------------------------------|--------------------------------||
||0---0---0---0---0---0---0---0---|0-0-0---0---0-0-0---0---0-0-0---||
  .   .   .   .   .   .   .   .    . . .   .   . . .   .   . . .     


|--------------------------------|
|--------------------------------|
|--------------------------------|
|15\-----------------------------|
|13\-----------------------------|
|--------------------------------|
 * Long pick slide...  Maybe?  :-)


Pre-verse:
----------

                                                              Play 4x
||--------------------------------|--------------------------------||
||--------------------------------|--------------------------------||
||--------------------------------|--------------------------------||
||--------------------------------|------------------------------2-||
||--------------------------------|--------------------------------||
||0-0-0-0-0-0-0-0-0-0-0-0-0-0-0-0-|3-3-3-3-3-3-3-3-1-1-1-1-1-1-1---||
  . . . . . . . . . . . . . . . .  . . . . . . . . . . . . . . .    


Verse 1:
--------
     
                                                             Play 8x
||--------------------------------|--------------------------------||
||--------------------------------|--------------------------------||
||--------------------------------|--------------------------------||
||--------------------------------|------------------------------2-||
||--------------------------------|--------------------------------||
||0-0-0-0-0-0-0-0-0-0-0-0-0-0-0-0-|3-3-3-3-3-3-3-3-1-1-1-1-1-1-1---||
  . . . . . . . . . . . . . . . .  . . . . . . . . . . . . . . .    


Chorus:
-------


||--------------------------------|--------------------------------|
||--------------------------------|--------------------------------|
||--------------------------------|--------------------------------|
||3-------------------------------|--------------------2---3---2---|
||1-------------------------------|--------------------0---1---0---|
||--------------------------------|--------------------------------|


|--------------------------------|--------------------------------|
|--------------------------------|--------------------------------|
|--------------------------------|--------------------------------|
|--------------------------------|------------------------2-------|
|4-------------------------------|------------------------0-------|
|2-------------------------------|--------------------------------|


|--------------------------------|--------------------------------|
|--------------------------------|--------------------------------|
|--------------------------------|--------------------------------|
|3-------------------------------|--------2---3---2---2---3---2---|
|1-------------------------------|--------0---1---0---0---1---0---|
|--------------------------------|--------------------------------|

                                                             Play 2x
|--------------------------------|--------------------------------||
|--------------------------------|--------------------------------||
|--------------------------------|--------------------------------||
|--------------------------------|------------------------2-------||
|4-------------------------------|------------------------0-------||
|2-------------------------------|--------------------------------||


|--------------------------------|
|--------------------------------|
|--------------------------------|
|--------------------------------|
|\-------------------------------|
|\-(Long pick slide)-------------|


Pre-verse:
----------
                                                              Play 3x
||--------------------------------|--------------------------------||
||--------------------------------|--------------------------------||
||--------------------------------|--------------------------------||
||--------------------------------|------------------------------2-||
||--------------------------------|--------------------------------||
||0-0-0-0-0-0-0-0-0-0-0-0-0-0-0-0-|3-3-3-3-3-3-3-3-1-1-1-1-1-1-1---||
  . . . . . . . . . . . . . . . .  . . . . . . . . . . . . . . .    

|--------------------------------|--------------------------------|
|--------------------------------|--------------------------------|
|--------------------------------|--------------------------------|
|--------------------------------|--------------------------------|
|--------------------------------|5---------------3---------------|
|0-0-0-0-0-0-0-0-0-0-0-0-0-0-0-0-|3---------------1---------------|
 . . . . . . . . . . . . . . . .    


Verse 2:
--------
                                                              Play 8x
||--------------------------------|--------------------------------||
||--------------------------------|--------------------------------||
||--------------------------------|--------------------------------||
||--------------------------------|------------------------------2-||
||--------------------------------|--------------------------------||
||0-0-0-0-0-0-0-0-0-0-0-0-0-0-0-0-|3-3-3-3-3-3-3-3-1-1-1-1-1-1-1---||
  . . . . . . . . . . . . . . . .  . . . . . . . . . . . . . . .    


Chorus:
-------

||--------------------------------|--------------------------------|
||--------------------------------|--------------------------------|
||--------------------------------|--------------------------------|
||3-------------------------------|--------------------2---3---2---|
||1-------------------------------|--------------------0---1---0---|
||--------------------------------|--------------------------------|

|--------------------------------|--------------------------------|
|--------------------------------|--------------------------------|
|--------------------------------|--------------------------------|
|--------------------------------|------------------------2-------|
|4-------------------------------|------------------------0-------|
|2-------------------------------|--------------------------------|

|--------------------------------|--------------------------------|
|--------------------------------|--------------------------------|
|--------------------------------|--------------------------------|
|3-------------------------------|--------2---3---2---2---3---2---|
|1-------------------------------|--------0---1---0---0---1---0---|
|--------------------------------|--------------------------------|
                                                             Play 2x
|--------------------------------|--------------------------------||
|--------------------------------|--------------------------------||
|--------------------------------|--------------------------------||
|--------------------------------|------------------------2-------||
|4-------------------------------|------------------------0-------||
|2-------------------------------|--------------------------------||

|--------------------------------|
|--------------------------------|
|--------------------------------|
|--------------------------------|
|\-------------------------------|

|\-(Long pick slide)-------------|


Interlude:
----------

Half-time feel.  (Hell, I dunno, it seems slower ok!)  :-)

                     
||----------------------------------------------------------------|
||----------------------------------------------------------------|
||----------------------------------------------------------------|
||----------------10\-9----------------------------------10-------|
||----------------8-\-7----------------------------------8--------|
||0---0---0---0----------0---0---0---0---0---0---0---0------------|
  .   .   .   .          .   .   .   .   .   .   .   .
                                                            Play 4x
|----------------------------------------------------------------||
|----------------------------------------------------------------||
|----------------------------------------------------------------||
|----------------10\-9-------------------------------------------||
|----------------8-\-7-------------------------------------------||
|0---0---0---0-----------0---0---0---0---7---8---11--10--9---8---||
|.   .   .   .           .   .   .   .                             


||----------------------------------------------------------------|
||----------------------------------------------------------------|
||----------------------------------------------------------------|
||----------------------------------------------------------------|
||----------------8-\-7----------------------------------8--------|
||0---0---0---0---6-\-5--0---0---0---0---0---0---0---0---6--------|
  .   .   .   .          .   .   .   .   .   .   .   .             
                                                            Play 2x
|----------------------------------------------------------------||
|----------------------------------------------------------------||
|----------------------------------------------------------------||
|----------------------------------------------------------------||
|----------------8-\-7-------------------------------------------||
|0---0---0---0---6-\-5---0---0---0---0---0---1---4---3---2---1---||
|.   .   .   .           .   .   .   .                             


||----------------------------------------------------------------|
||----------------------------------------------------------------|
||----------------------------------------------------------------|
||----------------7-\-6----------------------------------7--------|
||----------------5-\-4----------------------------------5--------|
||0---0---0---0----------0---0---0---0---0---0---0---0------------|
  .   .   .   .          .   .   .   .   .   .   .   .             
                                                            Play 2x
|----------------------------------------------------------------||
|----------------------------------------------------------------||
|----------------------------------------------------------------||
|----------------7-\-6-------------------------------------------||
|----------------5-\-4-------------------------------------------||
|0---0---0---0-----------0---0---0---0---4---5---8---7---6---5---||
|.   .   .   .           .   .   .   .                             

[ Tab from: http://www.guitartabs.cc/tabs/s/slayer/chemical_warfare_tab_ver_2.html ]
                                                              Play 2x
||--------------------------------|--------------------------------||
||--------------------------------|--------------------------------||
||--------------------------------|--------------------------------||
||--------7\6-----------------7---|--------7\6---------------------||
||--------5\4-----------------5---|--------5\4---------------------||
||0-0-0-0-----0-0-0-0-0-0-0-0-----|0-0-0-0-----0-0-0-0-4-5-8-7-6-5-||
  . . . .     . . . . . . . .      . . . .     . . . .


(Back to normal-time feel)



|(Guitar1)-----------------------|--------------------------------|
|--------------------------------|--------------------------------|
|--------------------------------|--------------------------------|
|--------------------------------|--------------------------------|
|--------------------------------|--------------------------------|
|0---0---0---0---0---0---0---0---|0-0-0---0---0-0-0---0---0-0-0---|
 .   .   .   .   .   .   .   .    . . .   .   . . .   .   . . .     

                                                              Play 6x
||(Guitars1&2)--------------------|--------------------------------||
||--------------------------------|--------------------------------||
||--------------------------------|--------------------------------||
||--------------------------------|--------------------------------||
||--------------------------------|--------------------------------||
||0---0---0---0---0---0---0---0---|0-0-0---0---0-0-0---0---0-0-0---||
  .   .   .   .   .   .   .   .    . . .   .   . . .   .   . . .     




||--------------------------------|--------------------------------|
||--------------------------------|--------------------------------|
||--------------------------------|----------------7---------------|
||--------------------------------|----------------5-----7-----9---|
||4-4-4-4-4-4-4-4-4-4-4-4-4-4-4-4-|4-4-4-4-4-4-4-4-------5-----7---|
||--------------------------------|--------------------------------|


|--------------------------------|--------------------------------|
|--------------------------------|--------------------------------|
|--------------------------------|----------------7---------------|
|--------------------------------|----------------5-----7-----9---|
|4-4-4-4-4-4-4-4-4-4-4-4-4-4-4-4-|4-4-4-4-4-4-4-4-------5-----7---|
|--------------------------------|--------------------------------|


|--------------------------------|--------------------------------|
|--------------------------------|--------------------------------|
|--------------------------------|----------------7---------------|
|--------------------------------|----------------5-----7-----9---|
|4-4-4-4-4-4-4-4-4-4-4-4-4-4-4-4-|4-4-4-4-4-4-4-4-------5-----7---|
|--------------------------------|--------------------------------|

                                                             Play 2x
|--------------------------------|--------------------------------||
|--------------------------------|--------------------------------||
|--------------------------------|7-----6-----5-------------------||
|--------------------------------|5-----4-----3---7-----8-----7---||
|4-4-4-4-4-4-4-4-4-4-4-4-4-4-4-4-|----------------5-----6-----5---||
|--------------------------------|--------------------------------||


|--------------------------------|
|--------------------------------|
|--------------------------------|
|--------------------------------|
|--------------------------------|
|--------------------------------|

Sorry it isn't finished but I'm really busy these days - I'll try to finish
it soon if I can...  :-/

However, here's the end part for you - this is the riff that they used as the
intro to ghost of war in case you didn't notice...  :-)

                                                              Play 4x
||--------------------------------|--------------------------------||
||--------------------------------|--------------------------------||
||--------------------------------|--------------------------------||
||--------------------------------|3-----------2-------------------||
||5---------------4---------------|------------------------3-------||
||----2-2-2-2-2-2-----2-2-2-2-2-2-|----2-2-2-2-----2-2-2-2-----2---||
      . . . . . .     . . . . . .      . . . .     . . . .     .

(Not too sure about this part...)                             Play 3x
||--------------------------------|--------------------------------||
||--------------------------------|--------------------------------||
||--------------------------------|--------------------------------||
||--------------------------------|------------------------1---2---||
||--------3---2-----------0---2---|--------3---2-------------------||
||4-4-4-4---------4-4-4-4---------|4-4-4-4---------3-3-3-3---------||
  . . . .         . . . .          . . . .         . . . .     

|--------------------------------|--------------------------------|
|--------------------------------|--------------------------------|
|--------------------------------|--------------------------------|
|--------------------------------|--------------------------------|
|--------3---2-----------0---2---|--------3---2-------------------|
|4-4-4-4---------4-4-4-4---------|4-4-4-4---------3-3-3-3-3-3-3-3-|
 . . . .         . . . .          . . . .         . . . . . . . .  

|--------------------------------|--------------------------------|
|--------------------------------|--------------------------------|
|--------------------------------|--------------------------------|
|--------------------------------|----------------2---------------|
|--------------------------------|----------------2---------------|
|3-3-3-3-3-3-3-3-3-3-3-3-3-3-3-3-|3-3-3-3-3-3-3-3-0---------------|
 . . . . . . . . . . . . . . . .  . . . . . . . .
--------------------------------------------------------------------------------
chemical warfare (solo 1)

album: haunting the chapel

slayer


solo 1
    t
eb-19-15p12-*-15-12-14-11-13-10-12-9-11-8-10-7-9-6-8-5-7-4-------------*
Bb----------*-----------------------------------------------7b---7b-7b-*
Gb----------*----------------------------------------------------------*
Db----------*----------------------------------------------------------*
Ab----------*----------------------------------------------------------*
Eb----------*----------------------------------------------------------*

   repeat

eb-------------------------------------------------*
Bb-5-6-8-5-6-8-------------------------------------*
Gb-------------7-4-5-7p5p4h5p4-4b-AH---------------*
Db-------------------------------------------------*
Ab-------------------------------------------------*
Eb-------------------------------------------------*
--------------------------------------------------------------------------------
chemical warfare (solo 2 & 3)

album: haunting the chapel

slayer


solo 2
    t      t     t               t     t     t
eb:------------------------11b------------------------------------|
Bb:-13-11-13-11-13-11-etc-------13-11-13-11-13-11-etc-------------|
Gb:---------------------------------------------------------------|
Db:---------------------------------------------------------------|
Ab:---------------------------------------------------------------|
Eb:---------------------------------------------------14-17-14-17-|




eb:-------------------------------------14-17-14-17-------------|
Bb:-------------------------------------------------14-17-14-17-|
Gb:------------------------14-16-14-16b-------------------------|
Db:------------14-16-14-16--------------------------------------|
Ab:14-16-14-16--------------------------------------------------|
Eb:-------------------------------------------------------------|




:------------------------------------------------------|
:------------------------------------------------------|
:14-16-14-16-----14-16b~~------------------------------|
:------------16----------------------------------------|
:------------------------------------------------------|
:-------------------------0/7810-7-8-10-9-10-12-9-10-12|





:------------------------------------------------------------------|
:------------------------------------------------------------------|
:------------------------------------------------------------------|
:------------------------------------------------------------------|
:------------------------------------------------------12-13-12-13-|
:10-11-13-10-11-13-11-12-14-11-12-14-12-13-15-12-13-15-------------|




:-------------22b--------16-------17-------------------------------|
:---------------------------15-------16----------------------------|
:------------------14-14-------14-------15--12-14-12-14------------|
:12-13-12-13--------------------------------------------12-14-12-14|
:------------------------------------------------------------------|
:------------------------------------------------------------------|



:------------------------------------------------------------|
:--------------------20b~~~----------------------------------|
:------------------------------------------------------------|
:------------------------------------------------------------|
:12-14-12-14-------------------------------------------------|
:------------15-12-------------------------------------------|


solo 3

:-------------------------------------------------------------22b-|
:-----------------------------------------------------------------|
:9h10h12-11h12h14-12h13h15-14-15-17-16-17-19-18-19-21-19-20-22----|
:-----------------------------------------------------------------|
:-----------------------------------------------------------------|
:-----------------------------------------------------------------|



play 6 times
:19-21-19-22-19-21-|-19-20-22-20-19-------------------------|
:------------------|----------------21-18-19-18-------------|
:------------------|----------------------------21-18-19-18-|
:------------------|----------------------------------------|
:------------------|----------------------------------------|
:------------------|----------------------------------------|



                    ----------------
:-----------------17b-17-17-17-17-17-13-14-16-14-13-14-16-14-13-etc---|
:---------------------------------------------------------------------|
:---------------------------------------------------------------------|
:21-18-19-18----------------------------------------------------------|
:------------21\------------------------------------------------------|
:---------------------------------------------------------------------|




:-13-14-16-18-13-14-13------------------------------------------------------------|
:----------------------17-14-15-14------------------------------------------------|
:----------------------------------17-14-15-14------------------------------------|
:----------------------------------------------17-14-15-14------------------------|
:----------------------------------------------------------17-14-15-14------------|
:----------------------------------------------------------------------17-14-15-14|


                                                            bar
:---------------------------------------------------------------------|
:-----------------------------------------------------------17b~~-----|
:----------------------------------------------12-14-12-14--16b~~-----|
:----------------------------------12-14-12-14------------------------|
:----------------------12-14-12-14------------------------------------|
:9-12-9-12-12-15-12-15------------------------------------------------|
--------------------------------------------------------------------------------
  
Comments