Slayer - Chemical Warfare Chords & Tabs

 

Chemical Warfare Chords & Tabs

Slayer Chords & Tabs

Version: 1 Type: Bass Tab 0 ratings
1 star 2 stars 3 stars 4 stars 5 stars
comments

Chemical Warfare Bass Tab

   
CHEMICAL WARFARE - Slayer

Tabbed by Stefan Hofmann

Riff A:                                                     Play 4x

|--------------------------------|--------------------------------|
|--------------------------------|--------------------------------|
|--------------------------------|--------------------------------|
|0---0---0---0---0---0---0---0---|0-0-0---0---0-0-0---0---0-0-0---|


Riff B:                                                    Play 12x

|--------------------------------|--------------------------------|
|--------------------------------|------------------------------2-|
|--------------------------------|----------------------------1---|
|0-0-0-0-0-0-0-0-0-0-0-0-0-0-0-0-|3-3-3-3-3-3-3-1-1-1-1-1-1-1-----|


Chorus Riff:                                                Play 2x

|--------------------------------|--------------------------------|
|--------------------------------|--------------------------------|
|1-------------------------------|0---1---0-----------------------|
|--------------------------------|------------2-------------------|


|--------------------------------|--------------------------------|
|--------------------------------|--------------------------------|
|0---1---------------0---1---0---|0---1---0-----------------------|
|--------------------------------|------------2-------------------|


Riff B: Play 12x


Chorus Riff: Play 2x


Riff C:                                        Play 4x

|--------------------------------|-------------------|
|--------------------------------|-------------------|
|------8/7---------8-------8/7---|------7--6---------|
|0-0-0-----0-0-0-0---0-0-0-------|7--8--------7--6---|


Riff C1:                                       Play 2x

|--------------------------------|-------------------|
|--------------------------------|-------------------|
|------1/0---------1-------1/0---|------0------------|
|0-0-0-----0-0-0-0---0-0-0-------|1--2-----4--1--1---|


Riff C2:                                       Play 2x

|--------------------------------|-------------------|
|--------------------------------|-------------------|
|------5/4---------5-------5/4---|------4--3---------|
|0-0-0-----0-0-0-0---0-0-0-------|4--5--------4--3---|

[ Tab from: http://www.guitartabs.cc/tabs/s/slayer/chemical_warfare_btab.html ]
Riff A: Play 4x


Riff D:                               Play 8x

|--------------------------------|----------|
|--------------------------------|5---------|
|4-4-4-4-4-4-4-4-4-4-4-4-4-4-4-4-|---4--5---|
|--------------------------------|----------|


Riff E:                                                     Play 4x

|--------------------------------|--------------------------------|
|-------------7-----6------------|------------------2-------------|
|0-0-0-0-0-0-----0-----0-0-0-0-0-|6/5--0-0-0-0-0-0-----1-1-1-1-1-1|
|--------------------------------|--------------------------------|

|----------|
|----------|
|----------|
|3--5--0---|


Riff B: Play 8x


Chorus Riff: Play 2x


Riff F:                                                     Play 6x

|--------------------------------|--------------------------------|
|------------2/1-------------2/1-|------------2/1-----------------|
|2-2-2-2-2-2-----2-2-2-2-2-2-----|2-2-2-2-2-2-----2-2-2-2-2-2--4--|
|--------------------------------|--------------------------------|


Riff F1:

|-------------------------------------|
|-------------------------------------|
|3--4--5--2--3--4--1--2--3--0--1--2---|
|-------------------------------------|


Chorus Riff: Play 2x


Riff G:                                                 Play 2x

|--------------------------------|----------------------------
|----------------------3-------2-|--------------------------3-
|------3-------4-----------------|------3---5-------4---------
|2-2-2---2-2-2---2-2-2---2-2-2---|2-2-2---2---2-2-2---2-2-2---

|--------|
|------2-|
|--------|
|2-2-2---|


Riff H:                                                Play 4x

|-------------------------------|----------------------------|
|-------------------------------|------------------------3/2-|
|----------3/2-----------2/1----|----------3/2---------------|
|4-4-4-4-4-----4-4-4-4-4--------|4-4-4-4-4-----3-3-3-3-3-----|


End:

|-------------------------------|----|
|-------------------------------|----|
|-------------------------------|----|
|3-3-3-3-3-3-3-3-3-3-3-3-3-3-3--|0---|



That's it! I didn't tab every little detail, so listen to the
album. ;-)


For questions, critics etc. send e-mail to:

*** maulwurf@hotmail.com ***
Comments