Slayer - Cast Down Chords & Tabs

 

Cast Down Chords & Tabs

Slayer Chords & Tabs

Version: 1 Type: Tab 0 ratings
1 star 2 stars 3 stars 4 stars 5 stars
comments

Cast Down Tab

Band- Slayer
Song- Cast Down

Tuning B (7 Strings King & 6 Strings low tuned Hanneman)


 RIFF 1 INTRO x1

|KING
|---------------------------------|---------------------------------|
|---------------------------------|---------------------------------|
|---------------------------------|---------------------------------|
|---------------------------------|---------------------------------|
|---------------------------------|---------------------------------|
|-8-------8-------7-------6-------|-8-------7-------6-------6-------|
|-6-0-0-0-6-0-0-0-5-0-0-0-4-0-0-0-|-6-0-0-0-5-0-0-0-4-0-0-0-4-0-0-0-|
    . . .   . . .   . . .   . . .     . . .   . . .   . . .   . . .


|BOTH
|---------------------------------|---------------------------------|
|---------------------------------|---------------------------------|
|---------------------------------|---------------------------------|
|---------------------------------|---------------------------------|
|---------------------------------|---------------------------------|
|-8-------8-------7-------6-------|-8-------7-------6-------5-6-----|
|-6-0-0-0-6-0-0-0-5-0-0-0-4-0-0-0-|-6-0-0-0-5-0-0-0-4-0-0-0-3-4-----|
    . . .   . . .   . . .   . . .     . . .   . . .   . . .


|BOTH
|---------------------------------|---------------------------------|
|---------------------------------|---------------------------------|
|---------------------------------|---------------------------------|
|---------------------------------|---------------------------------|
|---------------------------------|---------------------------------|
|-8-------8-------7-------6-------|-8-------7-------6-------6-------|
|-6-0-0-0-6-0-0-0-5-0-0-0-4-0-0-0-|-6-0-0-0-5-0-0-0-4-0-0-0-4-0-0-0-|
    . . .   . . .   . . .   . . .     . . .   . . .   . . .   . . .


|BOTH
|---------------------------------|---------------------------------|
|---------------------------------|---------------------------------|
|---------------------------------|---------------------------------|
|---------------------------------|---------------------------------|
|---------------------------------|---------------------------------|
|-8-------8-------7-------6-------|-8-------7-------6-------5-6-----|
|-6-0-0-0-6-0-0-0-5-0-0-0-4-0-0-0-|-6-0-0-0-5-0-0-0-4-0-0-0-3-4-----|
    . . .   . . .   . . .   . . .     . . .   . . .   . . .



 RIFF 2 INTRO x2

|-------------------------------------------------|
|-------------------------------------------------|
|-------------------------------------------------|
|-------------------------------------------------|
|-------------------------------------------------|
|-2-2---3-2---2-2---3-2---2-2---3-2---7-6---2-3---|
|-0-0---1-0---0-0---1-0---0-0---1-0---5-4---0-1---|




 RIFF 3 BREAK x1

|-------------------------------------------------|
|-------------------------------------------------|
|-------------------------------------------------|
|-------------------------------------------------|
|-------------------------------------------------|
|-2-2---2-2---2-2---2-2---2-2---2-2---2-2---------|
|-0-0---0-0---0-0---0-0---0-0---0-0---0-0---------|
     x     x     x     x     x     x     x



 RIFF 4 VERSE x4

|-------------------------|
|-------------------------|
|-------------------------|
|-------------------------|
|-3-----------------------|
|-1-2---------------------|
|---0-0-0-0--0-0-0--1-1-1-|
      . . .  . . .  . . .



 RIFF 5 VERSE x4
[ Tab from: http://www.guitartabs.cc/tabs/s/slayer/cast_down_tab.html ]
|-------------------------|-------------------------|
|-------------------------|-------------------------|
|-------------------------|-------------------------|
|-------------------------|-------------------------|
|-3-----------------------|-3-----------------------|
|-1-2---------5-2---------|-1-2---------5-2---3---5-|
|---0-0-0-0-0-3-0-0-0-0-0-|---0-0-0-0-0-3-0---1---3-|
      . . . .     . . . .       . . . .



 FILL 1

|-------------------------------------|
|-------------------------------------|
|-------------------------------------|
|-------------------------------------|
|-------------------------------------|
|-2-------3---2-------3---2h3-2h3-2h3-|
|-0-------1---0-------1---0h1-0h1-0h1-|




 RIFF 5 VERSE x4


 RIFF 6 BRIDGE x5

|-------------------|-------------------|
|-------------------|-------------------|
|-------------------|-------------------|
|-------------------|-------------------|
|-----3---2---------|-------------------|
|-2---1---0---2-----|-5---8-7-5-2-5-4---|
|-0-----------0-----|-3---6-5-3-0-3-2---|




 RIFF 2 CHORUS x2

 RIFF 3A BREAK x1

|-------------------------------------|
|-------------------------------------|
|-------------------------------------|
|-------------------------------------|
|-------------------------------------|
|-2-2---2-2---2-2---2-2---2-2---2-2---|
|-0-0---0-0---0-0---0-0---0-0---0-0---|
     x     x     x     x     x     x


 SOLO KING
  WAH & BAR WAH & BAR/\/\/\/\/\/\/\/\/\/\/\/\ WAH & BAR        WAH & BAR
|-------------------------------------------------------------------------|
|-------------------------------------------------------------------------|
|-------------------------------------------------------------------------|
|-0\\\\\\\\h4p2p0h4p2p0h4p2p0h5p4p0h5p4p0h5p4p0////\\\\\\\\----4p2p04p2p0-|
|-------------------------------------------------------------------------|
|-------------------------------------------------------------------------|
|-------------------------------------------------------------------------|

  WAH & BAR/\/\/\/\/\/\/\ BAR     WAH_________________________ WAH & BAR
|---------------------------------------------------------------------|
|---------------------------------------------------------------------|
|---------------------------------------------------------------------|
|-h4p2p0h5p4p0h5p4p0h5p4p0\\\\---/7fb^^^7^7^7^^7^7^7^^7^7^7^^rp0\\\\--|
|---------------------------------------------------------------------|
|---------------------------------------------------------------------|
|---------------------------------------------------------------------|
                                         x x x  x x x  x x
  WAH & BAR/\ WAH & BAR/\/\ WAH & BAR/\/\/\ WAH__________      N.H. BAR
|------------------------------------------------------------------------------|
|------------------------------------------------------------------------------|
|------------------------------------------------------------------------------|
|-5h7h8p5h7h8-7h8h10p7h8h10-8h10h11p8h10h11-131313131313b^^^^//15//\/\/\/\\----|
|------------------------------------------------------------------------------|
|------------------------------------------------------------------------------|
|------------------------------------------------------------------------------|




 RIFF 7 x8 UNDER SOLO

|---------------------------------|
|---------------------------------|
|---------------------------------|
|---------------------------------|
|-2-2-----------------------------|
|-0-0-----------------------------|
  .



 RIFF 3A BREAK x1


 RIFF 4 VERSE x4

 RIFF 5 VERSE x4


 FILL 1A

|-----------------------------------------|
|-----------------------------------------|
|-----------------------------------------|
|-----------------------------------------|
|-----------------------------------------|
|-2-------3---2-------3---2h3-2h3-2h3-2h3-|
|-0-------1---0-------1---0h1-0h1-0h1-0h1-|




 RIFF 6 BRIDGE x8

 RIFF 2 CHORUS x2

 RIFF 3 BREAK x1
Comments