Slayer - Born To Be Wild Chords & Tabs

 

Born To Be Wild Chords & Tabs

Slayer Chords & Tabs

Version: 1 Type: Bass Tab 0 ratings
1 star 2 stars 3 stars 4 stars 5 stars
comments

Born To Be Wild Bass Tab

Band- Slayer
Song- Born To Be Wild

intro

G:----------------------------------------9-7---9--7--------|
D:------0--2--------0--2-------0--2-----------9-----------0-|
A:----05----------05---------05------------------------2----|
E:----------------------------------------------------------|


riff 1

G:-----------------------------0-----------------------|
D:---2-2------0---2-2-2-----0-----2-2-----0-2-2-2------|
A:---------2-------------2-------------2---------2-0---|
E:---------------------------------------------------3-|


riff 2

G:-------------------------9-9-7------------------------|
D:---------------------7-9-------9----------------------|
A:----------0-0--------------------7--------------------|
E:--3-3--3--------0-------------------------------------|


riff 3

G:-----------------------------------------------------|
D:-----------------------------------------------------|
A:-----------------------00000-------------------------|
E:-00000000--3333333333--------333333333-0000000-------|

riff 4
[ Tab from: http://www.guitartabs.cc/tabs/s/slayer/born_to_be_wild_btab.html ]
G:-----------------------------------------------------|
D:-2---0---2---0---2---0-------------------------------|
A:-----------------------------------------------------|
E:-----------------------------------------------------|


riff 5

G:-----------------------------------------4--7--------|
D:-22220-02--2-22-2----0-22220-02--22-222--------------|
A:------2-----------02--------2------------------------|
E:-----------------------------------------------------|


riff 6

G:-99999--799999--799999--799999--79999999999999-------|
D:------79------79------79------79---------------------|
A:-----------------------------------------------------|
E:-----------------------------------------------------|


riff 7

G:-----------------------------------------------------|
D:--22222222222222222222-------------------------------|
A:-----------------------------------------------------|
E:-----------------------------------------------------|


order

intro x1
riff 1 x2
riff 2 x3
riff 1 x2
riff 2 x3
riff 3 x1
riff 4 x1
riff 1 x2
riff 5 x1
riff 6 x1
short break
riff 1 x2
riff 5 x1
riff 6 x1
riff 7 x1
Comments