Slayer - Bloodline Chords & Tabs

 

Bloodline Chords & Tabs

Slayer Chords & Tabs

Version: 1 Type: Bass Tab 0 ratings
1 star 2 stars 3 stars 4 stars 5 stars
comments

Bloodline Bass Tab

   
Song   - Bloodline
Band   - Slayer
CD     - God Hates Us All
Tuning - Standard
Tabber - TJ

Sounds Exact To Me, Please Rate.
Riff 1
G|----------|
D|----------|
A|----------|
E|----0-2-3-|

Riff 2
G|-------------------------------------------|
D|-------------------------------------------|
A|-------------------------------------------|
E|-0-0-3-3-2-2-1-1-0-0-3-3-2-2-1-1-0---0-2-3-|
[ Tab from: http://www.guitartabs.cc/tabs/s/slayer/bloodline_btab.html ]
Riff 3
G|-----------------------------------------------|
D|-----------------------------------------------|
A|-----------------------------------------------|
E|1-0-0-0-1-0-0-0-1-0-0--1-0-0-0-1-0-0-0-1-0-0-0-|

Riff 4
G|---------|
D|---------|
A|---------|
E|1--3-4-6-|

Riff 5
G|-------------------|
D|-------------------|
A|----1-0-1--0-3-2-1-|
E|1-3----------------|

Riff 6
G|------------------|
D|------------------|
A|------------------|
E|1-3-4-3-1-0-7-6-5-|

Riff 7
G|----------|
D|----------|
A|----------|
E|3-2-2-2-2-|
Comments