Slayer - Blood Red Chords & Tabs

 

Blood Red Chords & Tabs

Slayer Chords & Tabs

Version: 2 Type: Bass Tab 0 ratings
1 star 2 stars 3 stars 4 stars 5 stars
comments

Blood Red Bass Tab

   
**********************************************************************
This tab file was downloaded from THE ABYSS - the complete Slayer site                      http://www.slaytanic.com/
**********************************************************************

                            Blood Red - Slayer
                            ==================

Tune down 1/2 step (Eb,Ab,Db,Gb)

 142 bpm
|-----------------|-----------------|-----------------|-----------------|
|-----------------|-----------------|-----------------|-----------------|
|-----------------|-----------------|-----------------|-----------------|
|-0-0-0-0-0-0-0-0-|-0-0-0-0-0-0-0-0-|-0-0-0-0-0-0-0-0-|-0-0-0-0-0-0-0-0-|

|-----------------|-----------------|-----------------|-----------------|
|-----------------|-----------------|-----------------|-----------------|
|-----------------|-----------------|-----------------|-----------------|
|-0-0-0-0-0-0-0-0-|-0-0-0-0-0-0-0-0-|-0-0-0-0-0-0-0-0-|-0-0-0-0-0-0-0-0-|

|-----------------|-----------------||
|-----------------|-----------------||
|-----------------|-----------------||
|-0---------------|(0)--------------||

|-----------------|-----------------|-----------------|-----------------|
|-----------------|-5---------------|-----------------|-5---------------|
|-----7-------6---|--65-5---65------|-----7-------6---|--65-5---65------|
|-00-0----00-0----|----6------657---|-00-0----00-0----|----6------657---|

|-----------------|-----------------|-----------------|-----------------||
|-----------------|-5---------------|-----------------|-5---------------||
|-----7-------6---|--65-5---65------|-----7-------6---|--65-5-----------||
|-00-0----00-0----|----6------657---|-00-0----00-0----|----6----1---3---||

 verse 1
|-----------------|-----------------|-----------------|-----------------|
|-----------------|-----------------|-----------------|-----------------|
|-----------------|-----------------|-----------------|-----------------|
|-00-000-000-00---|-00-000-000-01---|-00-000-000-00---|-00-000-000-01---|

|-----------------|-----------------|-----------------|-----------------||
|-----------------|-----------------|-----------------|-----------------||
|-----------------|-----------------|-----------------|-----8---7-------||
|-00-000-000-00---|-00-000-000-01---|-00-000-000-00---|-00-0--------7\--||

 chorus
|-----------------|-----------------|-----------------|-----------------|
|-----------------|-----------------|-----------------|-5---------------|
|-----------------|-----------------|-----7-------6---|--65-5---65------|
|-33-333-333-333-3|-11-111-111-111-1|-00-0----00-0----|----6------657---|

|-----------------|-----------------|-----------------|-----------------|
|-----------------|-----------------|-----------------|-5---------------|
|-----------------|-----------------|-----7-------6---|--65-5---65------|
|-33-333-333-333-3|-11-111-111-111-1|-00-0----00-0----|----6------657---|

|-----------------|-----------------||
|-----------------|-5---------------||
|-----7-------6---|--65-5-----------||
|-00-0----00-0----|----6----1---3---||

 verse 2
|-----------------|-----------------|-----------------|-----------------|
|-----------------|-----------------|-----------------|-----------------|
|-----------------|-----------------|-----------------|-----------------|
|-00-000-000-00---|-00-000-000-01---|-00-000-000-00---|-00-000-000-01---|
[ Tab from: http://www.guitartabs.cc/tabs/s/slayer/blood_red_btab_ver_2.html ]
|-----------------|-----------------|-----------------|-----------------||
|-----------------|-----------------|-----------------|-----------------||
|-----------------|-----------------|-----------------|-----8---7-------||
|-00-000-000-00---|-00-000-000-01---|-00-000-000-00---|-00-0--------7\--||

 chorus
|-----------------|-----------------|-----------------|-----------------|
|-----------------|-----------------|-----------------|-5---------------|
|-----------------|-----------------|-----7-------6---|--65-5---65------|
|-33-333-333-333-3|-11-111-111-111-1|-00-0----00-0----|----6------657---|

|-----------------|-----------------|-----------------|-----------------|
|-----------------|-----------------|-----------------|-5---------------|
|-----------------|-----------------|-----7-------6---|--65-5---65------|
|-33-333-333-333-3|-11-111-111-111-1|-00-0----00-0----|----6------657---|

|-----------------|-----------------||
|-----------------|-5---------------||
|-----7-------6---|--65-5-----------||
|-00-0----00-0----|----6----1---3---||

 guitar solo
|-----------------|-----------------|-----------------|-----------------|
|-----------------|-----------------|-----------------|-----------------|
|-----------------|-----------------|-----------------|-----------------|
|-2222222222223-5-|-2222222222223-6-|-2222222222223-5-|-2222222222226-5-|

|-----------------|-----------------|-----------------|-----------------||
|-----------------|-----------------|-----------------|-----------------||
|-----------------|-----------------|-----------------|-----------------||
|-2222222222223-5-|-2222222222223-6-|-2222222222223-5-|-2222222222226-5-||

|-----------------|-----------------|-----------------|-----------------|
|-----------------|-----------------|-----------------|-----------------|
|-----------------|-----------------|-----------------|-----------------|
|-4444444444444444|-3333333333333333|-2222222222223-5-|-2222222222226-5-|

|-----------------|-----------------|-----------------|-----------------|
|-----------------|-----------------|-----------------|-----------------|
|-----------------|-----------------|-----------------|-----------------|
|-4444444444444444|-3333333333333333|-2222222222223-5-|-2222222222226-5-|

|-----------------|-----------------||
|-----------------|-----------------||
|-----------------|-----------------||
|-4---------------|-3-------3-------||

|-----------------|-----------------|-----------------|-----------------|
|-----------------|-----------------|-----------------|-----------------|
|-----------------|-----------------|-----------------|-----------------|
|-00-000-000-00---|-00-000-000-01---|-00-000-000-00---|-00-000-000-01---|

|-----------------|-----------------|-----------------|-----------------||
|-----------------|-----------------|-----------------|-----------------||
|-----------------|-----------------|-----------------|-----8---7-------||
|-00-000-000-00---|-00-000-000-01---|-00-000-000-00---|-00-0--------7\--||

 chorus
|-----------------|-----------------|-----------------|-----------------|
|-----------------|-----------------|-----------------|-5---------------|
|-----------------|-----------------|-----7-------6---|--65-5---65------|
|-33-333-333-333-3|-11-111-111-111-1|-00-0----00-0----|----6------657---|

|-----------------|-----------------|-----------------|-----------------|
|-----------------|-----------------|-----------------|-5---------------|
|-----------------|-----------------|-----7-------6---|--65-5---65------|
|-33-333-333-333-3|-11-111-111-111-1|-00-0----00-0----|----6------657---|

|-----------------|-----------------||
|-----------------|-5---------------||
|-----7-------6---|--65-5-----------||
|-00-0----00-0----|----6----1---3---||

Comments