Slayer - Behind The Crooked Cross Chords & Tabs

 

Behind The Crooked Cross Chords & Tabs

Slayer Chords & Tabs

Version: 1 Type: Tab 0 ratings
1 star 2 stars 3 stars 4 stars 5 stars
comments

Behind The Crooked Cross Tab

Behind The Crooked Cross
Slayer
Off The 1988 Album South Of Heaven
Transcribed By: Mike Bower
Tune Down ½ Step
Words and Music By: Jeff Hanneman
Play 10x
|-----------------------------------------------|
|-----------------------------------------------|
|-----------------------------------------------|
|-----------------------------------------------|
|-----------------------------------------------|
|--2-2-2-2-2-2-2-2-2-2-2-2-2-2-2-2--------------|
   *------------------------------|
Rhy. Fig 1
|-------------------------------------------------------|
|-------------------------------------------------------|
|-------------------------------------------------------|
|-------------------------------------------------------|
|------3-----2----------------4h5-----3-----2-----------|
|--2-2---2-2---2-2-4-2-2-3-2-2----2-2---2-2---2-2-4-2-2-|
   * *   * *   * *   * *   * *    * *   * *   * *   * *
|----------------|
|----------------|
|----------------|
|--------3-------|
|--------1-------|
|--3-2-2---------|
     * *
Fill 1 (Gtr1)
|----------------------------------|
|----------------------------------|
|----------------------------------|
|--6-----5-------------------------|
|---------------7-----6----5-6-5---|
|----------------------------------|
Gtr2
|----------------------------------|
|----------------------------------|
|----------------------------------|
|----------------------------------|
|--4-----3-------------------------|
|---------------5-----4----3-4-3---|
Gtrs 1&2
|--------------------------------------------------|
|--------------------------------------------------|
|--------------------------------------------------|
|--------------------------------------------------|
|--4-----3-----------------------------------------|
|---------------4-----5----3-4-3--2-2-2-2-2-2-2-2--|
                                  *--------------|
3rd time with fill 1
Solo Riff
|----------------------------------|
|----------------------------------|
|----------------------------------|
|----------------------------------|
|------4-----4-----3---3-----------|
|--2-2---2-2---2-2---2---5-5-4-----|
   * *   * *   * *   *   * *
For the ending harmonies, use fill 1, and the last time do this.
Gtr1 on top, Gtr2 on bottom.
|----------------------------------------|
|----------------------------------------|
|--6---5---------------------------------|
|-----------7---6--5-6-5--4--------------|
|--3---4---------------------------------|
|-----------5---4--3-4-3--2--------------|
contact: guitargod8852@hotmail.com
[ Tab from: http://www.guitartabs.cc/tabs/s/slayer/behind_the_crooked_cross_tab.html ]
Comments