Slayer - Angel Of Death Chords & Tabs

 

Angel Of Death Chords & Tabs

Slayer Chords & Tabs

Version: 3 Type: Tab 0 ratings
1 star 2 stars 3 stars 4 stars 5 stars
comments

Angel Of Death Tab

   
band: SlayeR
album: "Reign in Blood"
song: "Angel of Death"

Tuned 1 1/2 step down:

Intro: (fast)
--|---------------------------------------------------------|-- --|-----|--
--|---------------------------------------------------------|-- --|-----|--
--|---------------------------------------------------------|-- --|-----|--
--|-2-------------3-3-------------4-4-------------------8-7-|-- --|-3-3-|--
--|-2-------------3-3-------------4-4-------------0-1-0-8-7-|-- --|-3-3-|--
--|-0-0-0-0-0-0-0-1-1-0-0-0-0-0-0-2-2-0-0-0-0-0-0-0-1-0-6-5-|-- --|-1-1-|--
      . . . . . .     . . . . . .     . . . . . . . . .

Riff 1: (fast)
--|---------------------------------------------------------------|--
--|---------------------------------------------------------------|--
--|---------3-------------------------------3---------------7/8-8-|--
--|-2-------3-------2---------------2-------3-------2-------7/8-8-|--
--|-2-------1-------2---------------2-------1-------2-------5/6-6-|--
--|-0-0-0-0---0-0-0-0-0-0-0-1-4-1-0-0-0-0-0---0-0-0-0-0-0-0-------|--
      . . .   . . .   . . . . . . .   . . .   . . .   . . .

Chorus: (fast)
--|---------------------------------------------------------|--
--|---------------------------------------------------------|--
--|---------------------------------------------------------|--
--|-2-------------3-3-------------4-4-------------------8-7-|--
--|-2-------------3-3-------------4-4-------------0-1-0-8-7-|--
--|-0-0-0-0-0-0-0-1-1-0-0-0-0-0-0-2-2-0-0-0-0-0-0-0-1-0-6-5-|--
      . . . . . .     . . . . . .     . . . . . . . . .
[ Tab from: http://www.guitartabs.cc/tabs/s/slayer/angel_of_death_tab_ver_3.html ]
Riff 2: (fast)
--|---------------------------------------------------------------|--
--|---------------------------------------------------------------|--
--|---------3-------------------------------3---------------7/8-8-|--
--|-2-------3-------2---------------2-------3-------2-------7/8-8-|--
--|-2-------1-------2---------------2-------1-------2-------5/6-6-|--
--|-0-0-0-0---0-0-0-0-0-0-0-1-4-1-0-0-0-0-0---0-0-0-0-0-0-0-------|--
      . . .   . . .   . . . . . . .   . . .   . . .   . . .

Chorus: (fast)
--|---------------------------------------------------------|-- --|-----|--
--|---------------------------------------------------------|-- --|-----|--
--|---------------------------------------------------------|-- --|-----|--
--|-2-------------3-3-------------4-4-------------------8-7-|-- --|-3-3-|--
--|-2-------------3-3-------------4-4-------------0-1-0-8-7-|-- --|-3-3-|--
--|-0-0-0-0-0-0-0-1-1-0-0-0-0-0-0-2-2-0-0-0-0-0-0-0-1-0-6-5-|-- --|-1-1-|--
      . . . . . .     . . . . . .     . . . . . . . . .

Riff 3: (slow)
--|--------------------------------------------------------------------------
--|--------------------------------------------------------------------------
--|--------------------------------------------------------------------------
--|---------------------------------------------------------6-5-------8-10-11
--|-7-8-7-------------6-7-6---5-6-5---4-5-4---7-8-7-------7-----6-7-8--------
--|-------0-0-0-0-0-0-------0-------0-------0-------0-0-6--------------------
      h p . . . . . .   h p .   h p .   h p .   h p . . .

-------|--
-------|--
-------|--
-------|--
-10-11-|--
-------|--

Riff 4: (slow)

--|---------------------------------------------|--
--|---------------------------------------------|--
--|------------------2-3------------------------|--
--|-2-3-2-------2-3--0-1--2-3-2-----------------|--
--|-2-3-2-------0-1-------2-3-2-----------------|--
--|-0-1-0-0-0-0-----------0-1-0-0-0-0-0-0-0-0-0-|--
          . . .                 . . . . . . . .

And then the solo, but im not KERRY KING or JEFF HANNEMAN so i could not put
it out for you all, but whatever man i did all this by ear is an easy and great
song, some aggresive shit, i think thats what you all want, keep practicing,
well thats all, and here it is the legend:

Legend:
. = palm muting
/ = slide
h = hammer on
p = pull off


thanx: dimebag_cfh,
you can e-mail me at: hardcore_hjr@hotmail.com
Comments