Slaves On Dope - Pushing Me Chords & Tabs

 

Pushing Me Chords & Tabs

Slaves On Dope Chords & Tabs

Version: 1 Type: Tab 0 ratings
1 star 2 stars 3 stars 4 stars 5 stars
comments

Pushing Me Tab

   
|-------------------------------------------|
|-----Created By The Hard Rock Universe-----|
|----http://music.acmecity.com/metal/399----|
|-------------------------------------------|

Artist:		Slaves On Dope
Song:		Pushing Me
Album:		Inches From the Mainline
Author:		hardrockuniverse@kornfreak.com
URL:		http://www.hardrock.musicpage.com


Tuning: C#, G#, C#, F#, A#, D#

pm= Palm-Mute
w = Whammy Pedal
b = bend
r = release bend
~ = vibrato
h = hammer on




Intro/Chorus (Set Whammy Pedal to One Octive Up)
D#|-------------------------------------------------------------|
A#|-------------------------------------------------------------|
F#|-------------------------------------------------------------|
C#|-------------------------------------------------2/w---------|
G#|-------------------------------------------------------------|
C#|-2-0-1-2-0-1-2-0-1-2--2/w--2-0-1-2-0-1-2-0-1-2---------------|
[ Tab from: http://www.guitartabs.cc/tabs/s/slaves_on_dope/pushing_me_tab.html ]
Verse (Use a Pedal Wah and a Ring Mod)
D#|-------------------------------------------------------------|
A#|-------------------------------------------------------------|
F#|-------------------------------------------------------------|
C#|--2-0-1-1-0-1--2-0-1-1-0-1--2-0-1-1-0-1--2-0-1-1-0-1---------|
G#|-------------------------------------------------------------|
C#|-------------------------------------------------------------|

Breakdown
D#|-------------------------------------------------------------|
A#|-------------------------------------------------------------|
F#|-------------------------------------------------------------|
C#|-0--------------6--------------0---------------x-------------|
G#|-0--------------6--------------0---------------x-------------|
C#|-0--------------6--------------0---------------x-------------|


Interlude (Use a Flange on the Harmonics)
D#|---------------------------|
A#|---------------------------|
F#|---------------------------|
C#|---------------------------|
G#|---------------------------|
C#|-2-0-1-6-0-1-2-0-1---5-5---|
			NH-

Outro							  End on
D#|------------------------------------------------------|----|
A#|------------------------------------------------------|----|
F#|------------------------------------------------------|----|
C#|--2-0-1-1-0-1--2-0-1-1-0-1--2-0-1-1-0-1--2-0-1-1-0-1--|--0-|
G#|--2-0-1-1-0-1--2-0-1-1-0-1--2-0-1-1-0-1--2-0-1-1-0-1--|--0-|
C#|--2-0-1-1-0-1--2-0-1-1-0-1--2-0-1-1-0-1--2-0-1-1-0-1--|--0-|
						  PM--|

Intro 		x2
Verse 		x2
Intro 		x2
Verse 		x4
Breakdown	x4
Interlude	x4
(guitarless)	x2
Verse		x1
Chorus		x4
Outro 		x2
Comments