Slaves On Dope - Pushing Me Chords & Tabs

 

Pushing Me Chords & Tabs

Slaves On Dope Chords & Tabs

Version: 1 Type: Bass Tab 0 ratings
1 star 2 stars 3 stars 4 stars 5 stars
comments

Pushing Me Bass Tab

Artist: Slaves on Dope
Song: "Pushing Me"
EP/Album: 'Klepto' / 'Inches From The Mainline'

--------
  E: ---3-0-0-2-0-0-3-0-0-1-------
  A: -----------------------3-----
  D: -----------------------------
  G: -----------------------------

  E: ---3-0-0-2-0-0-3-0-0-1-------
  A: -----------------------------
  D: -----------------------3-----
  G: -----------------------------
--------

[ Tab from: http://www.guitartabs.cc/tabs/s/slaves_on_dope/pushing_me_btab.html ]
--------
  E: ---3-0-0-2-0-0-3-0-0-1-0-0---
  A: -----------------------------
  D: -----------------------------
  G: -----------------------------
--------


--------
  E: ---3-0--2-0--1-0-------------
  A: -----------------------------
  D: -----------------------------
  G: -----------------------------
--------

i'm sure you can figure out when to play what and how many times... it's not difficult :o)

tabbed by: [rabirt] noize@phayze.com
ps - this is my first attempt at writing a bass tab. please... no harsh critics.

Comments