Slaves On Dope - Fallout Chords & Tabs

 

Fallout Chords & Tabs

Slaves On Dope Chords & Tabs

Version: 1 Type: Bass Tab 0 ratings
1 star 2 stars 3 stars 4 stars 5 stars
comments

Fallout Bass Tab

   
Verse
G---------------------------------------------------------------------
D---------------------------------------------------------------------
A---------------------------------------------------------------------
E--01-01-01-01-04-01-01-01-01-2-01-01-01-01-4-01-01-01--0000000-------

Chorus
G---------------------------------------------------------------------
D---------------------------------------------------------------------
A---------------------------------------------------------------------
E-11111111/44444444-00000000-22222222

Breakdown
G-------
D--7-33~
A-------
E-------

Bridge
G-------
D-------
A-------
E--111--
[ Tab from: http://www.guitartabs.cc/tabs/s/slaves_on_dope/fallout_btab.html ]
verse
G ------------------------------------------------------------
D ------------------------------------------------------------
A ------------------------------------------------------------
E --------------------2--4------------------------------------
B --4--6--4--6--4--6--------4--6--4--6--4--6--4--6--7--7--7--7

G ------------------------------------------------------------
D ------------------------------------------------------------
A ------------------------------------------------------------
E --------------------2--4------------------------------------
B --4--6--4--6--4--6--------4--6--4--6--4--6--4--6--4--4--4--4

chorus
G -----------------------------------------------------------------
D -----------------------------------------------------------------
A -----------------------------------------------------------------
E ------------------4-4-4-4-4-4-4-4--------------------------------
B --6-6-6-6-6-6-6-6-----------------4-4-4-4-4-4-4-4-2-2-2-2-2-2-2-2

quiet part
G ---------
D ---------
A ---------
E ---------
B --6---7-6


i think thats it. email me if its wrong or comments w/e, chino_anyone666@hotmail.com
i can tab some more slaves on dope tabs if anyone needs them. i know how
5 string tabs are hard to come by buy
Comments