Slave - Just A Touch Of Love Chords & Tabs

 

Just A Touch Of Love Chords & Tabs

Slave Chords & Tabs

Version: 1 Type: Bass Tab 0 ratings
1 star 2 stars 3 stars 4 stars 5 stars
comments

Just A Touch Of Love Bass Tab

NOTE:
I started playing bass about 3 months ago, so this tab is VERY basic.  I was 
looking for the tab, but couldn't find it, so I decided to try my hand at 
making one myself - so this is my first one!  I know I've left out some slides 
and pulls and other variations, so  you'll have to work them in yourself.

Just A Touch of Love  (Slave)

(bass tab)

From: Colin Young 


Verse (repeat):
[ Tab from: http://www.guitartabs.cc/tabs/s/slave/just_a_touch_of_love_btab.html ]
G-------------------5---6----------------
D---33-----------------------------------
A-55---3-35-----5-3---4------------------
E-----5----533---3-----------------------


Bridge (repeat):

G----------------------------------------
D------2222----------------2222----------
A-2222------0000-0000-2222------0000-----
E------------------------------------2222

Very funky bassline and fun to play.
Please send comments and corrections to the above address(es)

Comments