Slaughter And The Dogs - Victims Of The Vampire Chords & Tabs

 

Victims Of The Vampire Chords & Tabs

Slaughter And The Dogs Chords & Tabs

Version: 1 Type: Tab 0 ratings
1 star 2 stars 3 stars 4 stars 5 stars
comments

Victims Of The Vampire Tab

-----------------------------------------------------------------------------
                Slaughter And The Dogs : Victims Of The Vampire
-----------------------------------------------------------------------------


At first, just unwind on : 

E|-----------|
B|-----------|
G|-----------|
D|-----8-----|
A|-----8-----|
E|-----6-----|


Intro ( Not sure )
E|---------------------------------------------------------------------------|
B|---------------------------------------------------------------------------|
G|-9--11-9-9--11-9-9--11-9-9--11-9-------------------------------------------|x6
D|-9--11-9-9--11-9-9--11-9-9--11-9-------------------------------------------|
A|-7--9--7-7--9--7-7--9--7-7--9--7-------------------------------------------|
E|---------------------------------------------------------------------------|

Verse/Riff 1
E|---------------------------------------------------------------------------|
B|---------------------------------------------------------------------------|
G|-------------------------------6--6-6-6-6-6-6-------8--8-8-8---------------|x4
D|--8--8-8-8--8-8-8--8-8-8--8-8--6--6-6-6-6-6-6--6--6-8--8-8-8---------------|
A|--8--8-8-8--8-8-8--8-8-8--8-8--4--4-4-4-4-4-4--6--6-6--6-6-6---------------|
E|--6--6-6-6--6-6-6--6-6-6--6-6------------------4--4------------------------|
[ Tab from: http://www.guitartabs.cc/tabs/s/slaughter_and_the_dogs/victims_of_the_vampire_tab.html ]
Chorus
E|---------------------------------------------------------------------------|
B|---------------------------------------------------------------------------|
G|----------------8--6--8--6-------------------------------------------------|x3
D|--8--8-8-8-8-8--8--6--8--6-------------------------------------------------|
A|--8--8-8-8-8-8--6--4--6--4-------------------------------------------------|
E|--6--6-6-6-6-6-------------------------------------------------------------|

E|---------------------------------------------------------------------------|
B|---------------------------------------------------------------------------|
G|-----------------1010101010101010------------------------------------------|
D|--8--8-8-8-8-8-8-8-8-8-8-8-8-8-8-------------------------------------------|
A|--8--8-8-8-8-8-8-8-8-8-8-8-8-8-8-------------------------------------------|
E|--6--6-6-6-6-6-6-----------------------------------------------------------|

Then : Riff 1, Chorus, Riff 1, Chorus

Solo
E|---------------------------------------------------------------------------|
B|--6----------------9----------------11----------------13-13-13-13-13-------|
G|---------------------------------------------------------------------------|
D|---------------------------------------------------------------------------|
A|---------------------------------------------------------------------------|
E|---------------------------------------------------------------------------|

E|---------------|
B|---------------|
G|---------------|x6
D|--88--6--3--1--|
A|---------------|
E|---------------|


Riff 1 x 2

 
Tabbed by Ian Kapoudjian
Email : ian.kay@free.fr
Comments