Slashs Snakepit - Speed Parade Chords & Tabs

 

Speed Parade Chords & Tabs

Slashs Snakepit Chords & Tabs

Version: 2 Type: Tab 0 ratings
1 star 2 stars 3 stars 4 stars 5 stars
comments

Speed Parade Tab

Artist:Slash's Snakepit 
Song Title:Speed Parade
Album:Ain't Life Grand

Tune Guitar down half a step!!!!!!

This is an awesome song with an infectious heavy riff. This is a 
great band with a great lead guitarist and singer.
(Harder Version)
[ Tab from: http://www.guitartabs.cc/tabs/s/slashs_snakepit/speed_parade_tab_ver_2.html ]
E-----------------------------------------------------------------
B-----------------------------------------------------------------
G-----------------------------------------------------------------
D--2--4--2--4--5----2--5--4---5--4--3--2--------------------------
A--2--4--2--4--5----2--5--4---5--4--3--2--------------------------
E--0--2--0--2--3----0--3--2---3--2--1--0--------------------------

(Easy Version)

E-----------------------------------------------------------------
B-----------------------------------------------------------------
G-----------------------------------------------------------------
D---2--4--2--4--5--2---5--4---5--4--3--2--------------------------
A---2--4--2--4--5--2---5--4---5--4--3--2--------------------------
E-----------------------------------------------------------------

Keep repeating whatever version you choose to play!

E-mail: billysweeneyjnr@hotmail.com
Comments