Slashs Snakepit - Neither Can I Chords & Tabs

 

Neither Can I Chords & Tabs

Slashs Snakepit Chords & Tabs

Version: 3 Type: Tab 0 ratings
1 star 2 stars 3 stars 4 stars 5 stars
comments

Neither Can I Tab

Neither can I
Slash's snakepit
It's Five O'clock somewhere

Tabbed by:   Lisa-Marie.
             lisamarie@waika9.com

 Guitar solo:
|------------------------------------------------------------------------------------------------|
|--------------------8-----------------------s-8p7h8p7-s-10----8h10p7------8-7-------8-7~~~~~----|
|--------------------------------7-7h9~~~~---------------------------------------9------------9--|
|--7-s-8-s-9-------------------------------------------------------------------------------------|
|------------------------------------------------------------------------------------------------|
|------------------------------------------------------------------------------------------------|

|--7p6--7--6-----6-----6-------------------------8-11-12-11-8-11--8h11p8-------------------------|
|-------------8-----8-----8p7p5--8-5-7-8--10-12---------------------------12p9-13p9--12h13p12p10-|
|------------------------------------------------------------------------------------------------|
|------------------------------------------------------------------------------------------------|
|------------------------------------------------------------------------------------------------|
|------------------------------------------------------------------------------------------------|

|------------------------------------------------------------------------------------------------|
|--12---b1----------------------------------------------------------13--------15----13-12-13-12--|
|------14/--(14)--12------12h14----12---------------------12-14--14-----14-----------------------|
|---------------------14-----------------14-14-14-14~~s------------------------------------------|
|------------------------------------------------------------------------------------------------|
|------------------------------------------------------------------------------------------------|
[ Tab from: http://www.guitartabs.cc/tabs/s/slashs_snakepit/neither_can_i_tab_ver_3.html ]
|--------------------------------------------------------------------------12------b1--12--------|
|-13p12----12--b1--------------b1-----13-12-s-15-------------------------------12-15/-----12-15--|
|-------14----14/-12----12-14-14/--14-------------17-16-17-16-17p16--14-16-----------------------|
|--------------------14--------------------------------------------------------------------------|
|------------------------------------------------------------------------------------------------|
|------------------------------------------------------------------------------------------------|

|----------------------------|
|------b1---/4---------b1----|
|------14/------14-12-14/----|
|----------------------------|
|----------------------------|
|----------------------------|

|----12--------b1---12-------------------------------------------------------------12------b1----|
|----------12-15/-------15-12-----b1-----------------------------------------b1--------12-15/----|
|--------------------------------14/----(14)p12------12----14----12------12-14/------------------|
|--------------------------------------------------------------------14--------------------------|
|------------------------------------------------------------------------------------------------|
|------------------------------------------------------------------------------------------------|

|----12---------15-14h15-14p12--14p12----12------------------------------------------------------|
|--------15-12-----------------------------------15----15p13-15p13-12-13p12-13p12----12----------|
|------------------------------------------------------------------------------------------15----|
|------------------------------------------------------------------------------------------------|
|------------------------------------------------------------------------------------------------|
|------------------------------------------------------------------------------------------------|

|------------------------------------------------------------------------------------------------|
|------------------------------------------------------------------------------------------------|
|--15p14-15p14----12----14--12p11p9-------12-9-11-12-11p9-11p9-7--7-----7------------------------|
|--------------14----14---------------------------------------------------9---9-8---8-7-s-6-s-5--|
|------------------------------------------------------------------------------------------------|
|------------------------------------------------------------------------------------------------|

|----------------------------------------------------------------------------|
|----------------------------------------------------------------------------|
|----------------b1----------------------------------b1----------------------|
|--7-----------5-7/------------(7)-----5---7----5----7/~~~~~~----------------|
|-----7-----7----------------------------------------------------------------|
|----------------------------------------------------------------------------|

s = slide  / = bend [(#) = bend steps]
Comments