Slashs Snakepit - I Hate Everybody But U Chords & Tabs

 

I Hate Everybody But U Chords & Tabs

Slashs Snakepit Chords & Tabs

Version: 1 Type: Tab 0 ratings
1 star 2 stars 3 stars 4 stars 5 stars
comments

I Hate Everybody But U Tab

I Hate Everybody (But You)
Written by SLASH and Eric Dover
Originally Recorded by SLASH's Snakepit

------------------7----------10~~~~~------7---------10b12--10-9-10----------|
----10b12~~~~~~-------10p7--------------------10p7--------------------------|
----------------------------------------------------------------------------|
----------------------------------------------------------------------------|
----------------------------------------------------------------------------|
----------------------------------------------------------------------------|


----9h10p9p7------9-----7h9p7------7--------7---10-9h10p9p7---9--b10r9---7--|
--------------10----10---------10----10b12----------------------------------|
----------------------------------------------------------------------------|
----------------------------------------------------------------------------|
----------------------------------------------------------------------------|
----------------------------------------------------------------------------|

------------------------7---------------------------------------------------|
--10b12~~~~------10b12----10--7--10--7h10p7---------------------------------|
---------------------------------------------9b11r(9)p7--9--9~~~~-----------|
----------------------------------------------------------------------------|
----------------------------------------------------------------------------|
----------------------------------------------------------------------------|

----------------------------------------------------------------------------|
--------7--10---------------------------------------------------------------|
--9b11---------11r9p7--9-----9------7h9p7-----9--7h9p7s6--7-6h7p6-----6-----|
--------------------------9-----9----------9-----------------------9--------|
----------------------------------------------------------------------------|
----------------------------------------------------------------------------|

[ Tab from: http://www.guitartabs.cc/tabs/s/slashs_snakepit/i_hate_everybody_but_u_tab.html ]
----------------------------------------------------------------------------|
----------------p.h.-[10-10]------------------------------------------------|
------------------------------x-x-------------------------------------------|
--9s11~~~~~-------------------x-x--p.h.-[9--9--9~~~~~]----------------------|
----------------------------------------------------------------------------|
----------------------------------------------------------------------------|


---10b12----10-9-10--9h10p9--9h10p9------9----------------------------------|
-------------------------------------12-----12--10--12--10h12p10p9----------|
----------------------------------------------------------------------------|
----------------------------------------------------------------------------|
----------------------------------------------------------------------------|
----------------------------------------------------------------------------|


---------------------12---------12---------12---------12---------12---------|
--9h10p9-----9--10------9--10------9--10------9--10------9--10--------------|
----------11----------------------------------------------------------------|
----------------------------------------------------------------------------|
----------------------------------------------------------------------------|
----------------------------------------------------------------------------|


                                     {Do this section 7 times}
--10h12p10p9-------9h10p9----9h10p9--{-------9h12p9-}-----------------------|
---------------12---------12---------{12b14---------}--12b14r--p10----12----|
-------------------------------------------------------------------11-------|
----------------------------------------------------------------------------|
----------------------------------------------------------------------------|
----------------------------------------------------------------------------|


----------------------------------------------------------------------------------|
---10~~~--------------------------------------------------------------------------|
----------------------------------------------------------------------------------|
----------------------------------------------------------------------------------|
----------------------------------------------------------------------------------|
----------------------------------------------------------------------------------|
Comments