Slashs Snakepit - Good To Be Alive Chords & Tabs

 

Good To Be Alive Chords & Tabs

Slashs Snakepit Chords & Tabs

Version: 2 Type: Tab 0 ratings
1 star 2 stars 3 stars 4 stars 5 stars
comments

Good To Be Alive Tab

   
Good To Be Alive
Written by SLASH/Gilby Clarke/Eric Dover
Originally Recorded by SLASH's Snakepit


Intro     W/distortion

Verse   x8
------------------------------------------------------------------------|
------------------------------------------------------------------------|
-8-x-8-x-8-8-x-8---7-x-7-x-7-7-x-7---6-x-6-x-6-6-x-6---5-x-5-x-5-5-x-5--|
-8-x-8-x-8-8-x-8---7-x-7-x-7-7-x-7---6-x-6-x-6-6-x-6---5-x-5-x-5-5-x-5--|
-8-x-8-x-8-8-x-8---7-x-7-x-7-7-x-7---6-x-6-x-6-6-x-6---5-x-5-x-5-5-x-5--|
-6-x-6-x-6-6-x-6---5-x-5-x-5-5-x-5---4-x-4-x-4-4-x-4---3-x-3-x-3-3-x-3--|

Main Riff   x8
---------------------|
---------------------|
--------------3---3--|
-5-5--3--2-2--3---3--|
-5-5--3--2-2--1-0-1--|
-3-3--1--0-0---------|


---------------------------|
---------------------------|
---------------------------|
-------Verse  x8-----------|
---------------------------|
---------------------------|


---------------------------|
---------------------------|
---------------------------|
--------Riff  x8-----------|
---------------------------|
---------------------------|


Bridge  x3
-----------------------------|-----------------|
-----------------------------|-----------------|
-----------------------------|-----------------|
-10-x-10--8--5-x-5--5--8--10-|--8---7---6---5--|
-10-x-10--8--5-x-5--5--8--10-|--8---7---6---5--|
-8--x-8---6--3-x-3--3--6--8--|--6---5---4---3--|

Solo

        B   B     B    B           B   B  B   B        B     B
---------3--------------------------3--------6--3-------3--------------
-6-\-5---3------------------6-\-5---3--------6--3--3--6---3------------
-6-\-5-5---5--3---3---3-----6-\-5-5---5--3------------------5--3-------
----------------5---5---5------------------5----------------------5----
-----------------------------------------------------------------------
-----------------------------------------------------------------------


[ Tab from: http://www.guitartabs.cc/tabs/s/slashs_snakepit/good_to_be_alive_tab_ver_2.html ]
                                 B    B      B      B          H  P
--------------------------------6-----------8--6---10--7--10--7-10-7--|
-----6---8~~~-8--8--6---6--8--8---8--8---6----------------------------|
-5/7---7--------------7----------------7------------------------------|
----------------------------------------------------------------------|
----------------------------------------------------------------------|
----------------------------------------------------------------------|

  BR       H  P    B     R   H  P     B      B                           B
-10------------------10--------------10~~~--10~~~-8------8--------------14--|
-10--8----8-10-8--10----10--8-10-8-------------------10-----10/11-10-9------|
--------9-------------------------------------------------------------------|
----------------------------------------------------------------------------|
----------------------------------------------------------------------------|
----------------------------------------------------------------------------|


---------------------------|
---------------------------|
---------------------------|
------Main Riff x8---------|
---------------------------|
---------------------------|

Backing Guiatr Riff  x8
---------------------------------|
--8-8-\-6-\-5-5-/-11-\-10-/-10---|
--7-7-\-5-\-4-4-/-10-\-9--/-9----|
--5-5-\-3-\-2-2-/-8--\-7--/-8----|
---------------------------------|
---------------------------------|

(Bass only) Tap strings above pickups with pick 
            getting closer to neck then slide
--x-x-x--x---------------------|
--x-x-x--x---------------------|
--x-x-x--x---------------------|
--x-x-x--x---------------------|
-------------------------------|
-------------------------------|

Outro riff till end
Guitar 1
-3-x-3-3-x-3-5-3-5-3-3-x-3-3-x-3--|
-3-x-3-3-x-3-5-3-5-3-3-x-3-3-x-3--|
-3-x-3-3-x-3-5-3-5-3-3-x-3-3-x-3--|
----------------------------------|
----------------------------------|
----------------------------------|

Guiatr 2
-------------------------------------|
-12--12-x-12-12-14-12-14-12--12-x-12-|
-12--12-x-12-12-14-12-14-12--12-x-12-|
-12--12-x-12-12-14-12-12-12--12-x-12-|
-------------------------------------|
-------------------------------------|
x  = Mute string
~  = Vibrato
\  = Slide Down
/  = Slide Up
BR = Bend and Release
B  = Bend
H  = Hammer on
P  = Pull off
Comments