Slashs Snakepit - Good To Be Alive Chords & Tabs

 

Good To Be Alive Chords & Tabs

Slashs Snakepit Chords & Tabs

Version: 1 Type: Tab 0 ratings
1 star 2 stars 3 stars 4 stars 5 stars
comments

Good To Be Alive Tab

   
Good to be alive
Slash's Snakepit
It's five o' clock somewhere

Tabbed by:    David Knights

 Intro (w/distortion):
|-------------------------------------------------------------------------------|
|-------------------------------------------------------------------------------| 
|-6-6---6---6-6---6---5-5---5---5-5---5---4-4---4---4-4---4---3-3---3---3-3---3-| 
|-8-8---8---8-8---8---7-7---7---7-7---7---6-6---6---6-6---6---5-5---5---5-5---5-| 
|-8-8-8-8---8-8-8-8---7-7-7-7---7-7-7-7---6-6-6-6---6-6-6-6---5-5-5-5---5-5-5-5-| 
|-6-6-8-6---6-6-8-6---5-5-7-5---5-5-7-5---4-4-6-4---4-4-6-4---3-3-5-3---3-5-5-3-| 

 Verse   x8
|------------------------------------------------------------------------|
|------------------------------------------------------------------------|
|-8-x-8-x-8-8-x-8---7-x-7-x-7-7-x-7---6-x-6-x-6-6-x-6---5-x-5-x-5-5-x-5--|
|-8-x-8-x-8-8-x-8---7-x-7-x-7-7-x-7---6-x-6-x-6-6-x-6---5-x-5-x-5-5-x-5--|
|-8-x-8-x-8-8-x-8---7-x-7-x-7-7-x-7---6-x-6-x-6-6-x-6---5-x-5-x-5-5-x-5--|
|-6-x-6-x-6-6-x-6---5-x-5-x-5-5-x-5---4-x-4-x-4-4-x-4---3-x-3-x-3-3-x-3--|

 Main Riff   x8
|---------------------|
|---------------------|
|--------------3---3--|
|-5-5--3--2-2--3---3--|
|-5-5--3--2-2--1-0-1--|
|-3-3--1--0-0---------|

|---------------------------|
|---------------------------|
|---------------------------|
|--------Verse x8-----------|
|---------------------------|
|---------------------------|

|---------------------------|
|---------------------------|
|---------------------------|
|--------Riff x8------------|
|---------------------------|
|---------------------------|

 Bridge x3
|-----------------------------|-----------------|
|-----------------------------|-----------------|
|-----------------------------|-----------------|
|-10-x-10--8--5-x-5--5--8--10-|--8---7---6---5--|
|-10-x-10--8--5-x-5--5--8--10-|--8---7---6---5--|
|-8--x-8---6--3-x-3--3--6--8--|--6---5---4---3--|
[ Tab from: http://www.guitartabs.cc/tabs/s/slashs_snakepit/good_to_be_alive_tab.html ]
 Guitar solo
|---------3--------------------------3--------6b-3--------3-------------|
|-6-\5----3------------------6-\5----3--------6b-3--3--6b---3-----------|
|-6-\5-5b---5b-3---3---3-----6-\5-5b---5b-3b-------------------5b-3-----|
|----------------5b--5b---5------------------5-----------------------5--|
|-----------------------------------------------------------------------|
|-----------------------------------------------------------------------|
                                   
|-------------------------------6b-----------8b--6--10b--7--10--7h10p7-|
|-----6---8~~~-8--8--6---6--8-8---8--8b---6----------------------------|
|-5/7---7--------------7----------------7------------------------------|
|----------------------------------------------------------------------|
|----------------------------------------------------------------------|
|----------------------------------------------------------------------|

  BR      
|-10------------------10-------------10b~~~--10b~~-8------8--------------14b-|
|-10--8----8h10p8-10b---r10--8h10p8-------------------10-----10/11-10-9------|
|--------9-------------------------------------------------------------------|
|----------------------------------------------------------------------------|
|----------------------------------------------------------------------------|
|----------------------------------------------------------------------------|

|---------------------------|
|---------------------------|
|---------------------------|
|------Main Riff x8---------|
|---------------------------|
|---------------------------|

 Backing Guitar Riff x8
|---------------------------------|
|--8-8-\-6-\-5-5-/-11-\-10-/-10---|
|--7-7-\-5-\-4-4-/-10-\-9--/-9----|
|--5-5-\-3-\-2-2-/-8--\-7--/-8----|
|---------------------------------|
|---------------------------------|

(Bass only) Tap strings above pickups with pick 
            getting closer to neck then slide
|--x-x-x--x---------------------|
|--x-x-x--x---------------------|
|--x-x-x--x---------------------|
|--x-x-x--x---------------------|
|-------------------------------|
|-------------------------------|

Outro riff 'til end
 Guitar 1
|-3-x-3-3-x-3-5-3-5-3-3-x-3-3-x-3--|
|-3-x-3-3-x-3-5-3-5-3-3-x-3-3-x-3--|
|-3-x-3-3-x-3-5-3-5-3-3-x-3-3-x-3--|
|----------------------------------|
|----------------------------------|
|----------------------------------|

 Guitar 2
|-------------------------------------|
|-12--12-x-12-12-14-12-14-12--12-x-12-|
|-12--12-x-12-12-14-12-14-12--12-x-12-|
|-12--12-x-12-12-14-12-12-12--12-x-12-|
|-------------------------------------|
|-------------------------------------|

x  = Mute string
~  = Vibrato
\  = Slide Down
/  = Slide Up
BR = Bend and Release
B  = Bend
H  = Hammer on
P  = Pull off

*****************************************************
|    Appetite for tablatures home page              |
|    http://www.geocities.com/SunsetStrip/7317/     |
*****************************************************

Comments