Slashs Snakepit - Ain't Life Grand Chords & Tabs

 

Ain't Life Grand Chords & Tabs

Slashs Snakepit Chords & Tabs

Version: 1 Type: Bass Tab 0 ratings
1 star 2 stars 3 stars 4 stars 5 stars
comments

Ain't Life Grand Bass Tab

   
AIN'T LIFE GRAND (Bassline)
As recorded by Slash's Snakepit
(From the 2000 Album AIN'T LIFE GRAND)

Words and Music by Slash's Snakepit
Arranged by Slash's Snakepit
Transcribed by Attila Acs

Gtr I (D# G# C# F#) - 'Johnny G.'

 Intro
  Q=100(8=s8)
 4/4
  Gtr I
|---------|-----------|--------------|-----------|--------------|
|---------|-----------|--------------|-----------|--------5\----|
|---------|-3----1----|--------------|-3----1----|--------------|
|---------|-----------|-4---3-(3)----|-----------|-4---3--------|


|-----------|------------------|-----------|-----|
|-----------|------------------|-----------|-----|
|-3----1----|--------------1h2h|=3\--------|-----|
|-----------|-4---3-(3)--3-----|-----------|-----|


|-------------|-------------------------|
|-------------|-5-5-5-5-5-5-5-5-5-5-5-5-|
|-------------|-------------------------|
|-3--3--3--3--|-------------------------|


 Interlude
|---------------|------------------|------------------|------------------|
|----1--1-------|------------------|-------4--4-3-1---|-------3--3-1-----|
|-3-------------|-------1--1-------|------------------|--------------3-1-|
|---------1-2-3-|-(3)-3------2-3-4-|-(4)-4----------3-|-(3)-3------------|


|---------------|------------------|------------------|------------------|
|----1--1-------|------------------|-------4--4-3-1---|-------3--3-1-----|
|-3-------------|-------1--1-------|------------------|--------------3-1-|
|---------1-2-3-|-(3)-3------2-3-4-|-(4)-4----------3-|-(3)-3------------|


 Verse
|--------------|----------------|--------------|-----------------|
|--------------|----------------|--------------|--------4-3------|
|-3--3--3--3---|--------------6-|-6--6--6--6-0-|-1--1/------6-3--|
|------------3-|-4--4--4--6-8---|--------------|-----------------|


|----------------|----------------|--------------|-----------------|
|----------------|----------------|--------------|--------4-3------|
|-(3)--3--3--3---|--------------6-|-6--6--6--6-0-|-1--1/------6----|
|--------------3-|-4--4--4--6-8---|--------------|--------------4--|


|------------------|---------------|---------------|-----------------|
|------------------|---------------|---------------|---------------3-|
|------3--4--3-4-5-|-6---------6-8-|-8--8-6-8--8\--|-----------3-5---|
|-(4)--------------|----4--6-8-----|---------------|-3--3-3-3--------|


|----------------------------|
|-5-5-5-5-5-5-5-5-5-5-5-5----|
|----------------------------|
|----------------------------|


 Interlude
|---------------|------------------|------------------|------------------|
|----1--1-------|------------------|-------4--4-3-1---|-------3--3-1-----|
|-3-------------|-------1--1-------|------------------|--------------3-1-|
|---------1-2-3-|-(3)-3------2-3-4-|-(4)-4----------3-|-(3)-3------------|


|---------------|------------------|------------------|------------------|
|----1--1-------|------------------|-------4--4-3-1---|-------3--3-1-----|
|-3-------------|-------1--1-------|------------------|--------------3-1-|
|---------1-2-3-|-(3)-3------2-3-4-|-(4)-4----------3-|-(3)-3------------|


 Verse
|--------------|----------------|--------------|-----------------|
|--------------|----------------|--------------|--------4-3------|
|-3--3--3--3---|--------------6-|-6--6--6--6-0-|-1--1/------6-3--|
|------------3-|-4--4--4--6-8---|--------------|-----------------|


|----------------|----------------|--------------|-----------------|
|----------------|----------------|--------------|--------4-3------|
|-(3)--3--3--3---|--------------6-|-6--6--6--6-0-|-1--1/------6----|
|--------------3-|-4--4--4--6-8---|--------------|--------------4--|


|------------------|---------------|---------------|-----------------|
|------------------|---------------|---------------|---------------3-|
|------3--4--3-4-5-|-6---------6-8-|-8--8-6-8--8\--|-----------3-5---|
|-(4)--------------|----4--6-8-----|---------------|-3--3-3-3--------|


|----------------------------|
|-5-5-5-5-5-5-5-5-5-5-5-5----|
|----------------------------|
|----------------------------|


 Chorus
|--------------|---------------|--------------|------------------------|
|--------------|---------------|--------------|------------------------|
|----3--4--5-6-|-(6)-----------|----5--6--7-8-|-8-8-6-6-6-5-5-5--------|
|-4------------|------3--4--5--|-6------------|-----------------6-6-6--|

[ Tab from: http://www.guitartabs.cc/tabs/s/slashs_snakepit/aint_life_grand_btab.html ]
|--------------|---------------|--------------|------------------------|
|--------------|---------------|--------------|------------------------|
|----3--4--5-6-|-(6)-----------|----5--6--7-8-|-8-8-6-6-6-5-5-5--------|
|-4------------|------3--4--5--|-6------------|-----------------6-6-6--|


|--------------|---------------|--------------|---------------|
|--------------|---------------|----0--1--2---|---------------|
|----3--4--5-6-|-(6)-----------|-1------------|---------------|
|-4------------|------3--4--5--|------------1-|-(1)--1--1--1--|


|--------------|-------------------------|
|--------------|-5-5-5-5-5-5-5-5-5-5-5-5-|
|--------------|-------------------------|
|-3--3-3-3--3--|-------------------------|


 Guitar Solo
|--------------|----------------|--------------|-----------------|
|--------------|----------------|--------------|--------4-3------|
|-3--3--3--3---|--------------6-|-6--6--6--6-0-|-1--1/------6-3--|
|------------3-|-4--4--4--6-8---|--------------|-----------------|


|----------------|----------------|--------------|-----------------|
|----------------|----------------|--------------|--------4-3------|
|-(3)--3--3--3---|--------------6-|-6--6--6--6-0-|-1--1/------6----|
|--------------3-|-4--4--4--6-8---|--------------|--------------4--|


|------------------|---------------|---------------|-----------------|
|------------------|---------------|---------------|---------------3-|
|------3--4--3-4-5-|-6---------6-8-|-8--8-6-8--8\--|-----------3-5---|
|-(4)--------------|----4--6-8-----|---------------|-3--3-3-3--------|


|----------------------------|
|-5-5-5-5-5-5-5-5-5-5-5-5----|
|----------------------------|
|----------------------------|


   Chorus
                                                                         3x
||---------------|---------------|--------------|------------------------||
||o--------------|---------------|--------------|-----------------------o||
||o----3--4--5-6-|-(6)-----------|----5--6--7-8-|-8-8-6-6-6-5-5-5-------o||
||--4------------|------3--4--5--|-6------------|-----------------6-6-6--||


|--------------|---------------|--------------|---------------|
|--------------|---------------|----0--1--2---|---------------|
|----3--4--5-6-|-(6)-----------|-1------------|---------------|
|-4------------|------3--4--5--|------------1-|-(1)--1--1--1--|


|--------------|------------------------|
|--------------|-5-3---5-3---5-3--------|
|--------------|-----5-----5-----5-3----|
|-3--3-3-3--3--|---------------------6--|


   Interlude
                                                                             4x
||----------------|------------------|------------------|--------------------||
||o----1--1-------|------------------|-------4--4-3-1---|-------3--3-1------o||
||o-3-------------|-------1--1-------|------------------|--------------3-1--o||
||----------1-2-3-|-(3)-3------2-3-4-|-(4)-4----------3-|-(3)-3--------------||


 Outro
|-----------|-----------------|-----------|-------------|
|-----------|-----------------|-----------|---------5\--|
|-3----1----|-------------1h2h|=3----1----|-------------|
|-----------|-4---3-(3)-3-----|-----------|-4---3-------|


|-----------|------------------|-----------|-----|
|-----------|------------------|-----------|-----|
|-3----1----|--------------1h2h|=3\--------|-----|
|-----------|-4---3-(3)--3-----|-----------|-----|


              >
|----------|------------|--------||
|----------|------------|--------||
|-3--------|-(3)--------|-(3)----||
|----------|------------|--------||


Tablature Legend
----------------
 h   - hammer-on
 p   - pull-off
 b   - bend
 pb  - pre-bend
 r   - bend release (if no number after the r, then release immediately)
 /\  - slide into or out of (from/to "nowhere")
 s   - legato slide
 S   - shift slide
  - natural harmonic
[n]  - artificial harmonic
n(n) - tapped harmonic
 ~   - vibrato
 tr  - trill
 T   - tap
 TP  - trem. picking
 PM  - palm muting
\n/  - tremolo bar dip; n = amount to dip
 \n  - tremolo bar down
 n/  - tremolo bar up
/n\  - tremolo bar inverted dip
 =   - hold bend; also acts as connecting device for hammers/pulls
 <>  - volume swell (louder/softer)
 x   - on rhythm slash represents muted slash
 o   - on rhythm slash represents single note slash

Misc Legend
-----------
 |  - bar
||  - double bar
||o - repeat start
o|| - repeat end
*|  - double bar (ending)
 :  - bar (freetime)
 $  - Segno
 &  - Coda
Tempo markers -  = BPM(8/16=s8/s16), where s8 = swing 8ths, s16 = swing 16ths
Comments