Slash - Ghost Chords & Tabs

 

Slash Chords & Tabs

Version: 2 Type: Tab 0 ratings
1 star 2 stars 3 stars 4 stars 5 stars
comments

Ghost Tab

   
Slash - Ghost Tab
-------------------------------------------

Hey guys,

Here's the correct way of playing Ghost by Slash featuring Ian Astbury and Izzy Stradlin 
Slash's new album, 'Slash'.

No solo yet but there are other tabs with the correct solo tabbed.

Tabbed by: Ben Youle(AKA kozine)

Tuning: Standard
Difficulty: Intermediate

-------------------------------------------

Intro
----------------

Partly Muted
E|----------------------------------------------|
B|--10-0----12-0----10-0----12-0----10-9-0------|
G|-------11------11------11------11--------11---|
D|----------------------------------------------|   x10
A|----------------------------------------------|
E|----------------------------------------------|

E|-------------------------------------------------------------------------------|
B|--10-0----12-0-0-10-0----12-0-0-10-0----12-0-0-10-0----12-0-0-10-0----12-12----|
G|-------11-------------11-------------11-------------11-------------11----------|
D|-------------------------------------------------------------------------------|
A|-------------------------------------------------------------------------------|
E|-------------------------------------------------------------------------------|

Verse
----------------

E|-------------------------------------------------------|
B|-------------------------------------------------------|
G|--7h9-x-x-9-x-9-x-9-9-9-7h9-x-7h9-x-x-9-x-9-x-9-9-9-7--|
D|--7h9-x-x-9-x-9-x-9-9-9-7h9-x-7h9-x-x-9-x-9-x-9-9-9-7--|   x2
A|--7---x-x-7-x-7-x-7-7-7-7---x-7---x-x-7-x-7-x-7-7-7----|
E|-------------------------------------------------------|

E|------------------------------|
B|------------------------------|
G|-2h4-x-x-4---2h4-x-x-4--2-----|
D|-2h4-x-x-4---2h4-x-x-4--2---2-|   x2
A|-2---x-x-2---2---x-x-2--0---2-|
E|--------------------------4-0-|

E|-------------------------------------------------------|
B|-------------------------------------------------------|
G|--7h9-x-x-9-x-9-x-9-9-9-7h9-x-7h9-x-x-9-x-9-x-9-9-9-7--|
D|--7h9-x-x-9-x-9-x-9-9-9-7h9-x-7h9-x-x-9-x-9-x-9-9-9-7--|   x2
A|--7---x-x-7-x-7-x-7-7-7-7---x-7---x-x-7-x-7-x-7-7-7----|
E|-------------------------------------------------------|

E|------------------------------|
B|------------------------------|
G|-2h4-x-x-4---2h4-x-x-4--2-----|
D|-2h4-x-x-4---2h4-x-x-4--2---2-|   x2
A|-2---x-x-2---2---x-x-2--0---2-|
E|--------------------------4-0-|

E|-----3-------19-----------|
B|-----3---------22-19-22---|
G|-----0----21---------21---|
D|-----0--------------------|
A|-----2--------------------|
E|-----3--------------------|

Chorus
----------------

E|----------------------------------------------|
B|--10-0----12-0----10-0----12-0----10-9-0------|
G|-------11------11------11------11--------11---|
D|----------------------------------------------|   x10
A|----------------------------------------------|
E|----------------------------------------------|

E|-------------------------------------------------------------------------------|
B|--10-0----12-0-0-10-0----12-0-0-10-0----12-0-0-10-0----12-0-0-10-0----12-12----|
G|-------11-------------11-------------11-------------11-------------11----------|
D|-------------------------------------------------------------------------------|
A|-------------------------------------------------------------------------------|
E|-------------------------------------------------------------------------------|

Verse
----------------
[ Tab from: http://www.guitartabs.cc/tabs/s/slash/ghost_tab_ver_2.html ]
E|-------------------------------------------------------|
B|-------------------------------------------------------|
G|--7h9-x-x-9-x-9-x-9-9-9-7h9-x-7h9-x-x-9-x-9-x-9-9-9-7--|
D|--7h9-x-x-9-x-9-x-9-9-9-7h9-x-7h9-x-x-9-x-9-x-9-9-9-7--|   x2
A|--7---x-x-7-x-7-x-7-7-7-7---x-7---x-x-7-x-7-x-7-7-7----|
E|-------------------------------------------------------|

E|------------------------------|
B|------------------------------|
G|-2h4-x-x-4---2h4-x-x-4--2-----|
D|-2h4-x-x-4---2h4-x-x-4--2---2-|   x2
A|-2---x-x-2---2---x-x-2--0---2-|
E|--------------------------4-0-|

E|-----3-------19-----------|
B|-----3---------22-19-22---|
G|-----0----21---------21---|
D|-----0--------------------|
A|-----2--------------------|
E|-----3--------------------|

Chorus
----------------

E|----------------------------------------------|
B|--10-0----12-0----10-0----12-0----10-9-0------|
G|-------11------11------11------11--------11---|
D|----------------------------------------------|   x10
A|----------------------------------------------|
E|----------------------------------------------|

Bridge
-----------------------------------------------------------------|
E|---------------------------------------------------------------|
B|---------------------------------------------------------------|
G|------------------------------------------------2---4----------|
D|-2-3----4-x-x-4-x-4-4-4-4---4-x-x-4-x-4-4-4-4---2---4----------|   x2
A|-2-3----4-x-x-4-x-4-4-4-4---4-x-x-4-x-4-4-4-4---0---2----------|
E|-0-1----2-x-x-2-x-2-2-2-0h2-2-x-x-2-x-2-2-2-0h2----------------|

Solo
----------------

I haven't figured out the solo yet but here is what the rhythm guitar plays underneath.

E|-----------------------------------------------------------------------|
B|-----------------------------------------------------------------------|
G|-6-6-6-6-6-6-6-6-----------------4-4-4-4-4-4-4-4-----------------------|
D|-6-6-6-6-6-6-6-6-4-4-4-4-4-4-4-4-4-4-4-4-4-4-4-4-4-4-4-4-4-4-4-4-------|
A|-4-4-4-4-4-4-4-4-4-4-4-4-4-4-4-4-2-2-2-2-2-2-2-2-4-4-4-4-4-4-4-4-------|   x2
E|-----------------2-2-2-2-2-2-2-2-----------------2-2-2-2-2-2-2-2-------|

E|-----------------|
B|-----------------|
G|-6-6-6-6-6-6-6-6-|
D|-6-6-6-6-6-6-6-6-|
A|-4-4-4-4-4-4-4-4-|
E|-----------------|

Breakdown
----------------

E|----------------------------------------------|
B|--10-0----12-0----10-0----12-0----10-9-0------|
G|-------11------11------11------11--------11---|
D|----------------------------------------------|   x5
A|----------------------------------------------|
E|----------------------------------------------|

Chorus
----------------

E|----------------------------------------------|
B|--10-0----12-0----10-0----12-0----10-9-0------|
G|-------11------11------11------11--------11---|
D|----------------------------------------------|   x10
A|----------------------------------------------|
E|----------------------------------------------|

Ending
----------------

E|--------------------------------------------------------------------------------|
B|-10-0----12-0-0-10-0----12-0-0-10-9-0----10-0----12-0-0-10-0----12-0-0-10-9-0---|
G|------11-------------11---------------11------11-------------11---------------11|
D|--------------------------------------------------------------------------------|
A|--------------------------------------------------------------------------------|
E|--------------------------------------------------------------------------------|

E|-------|
B|---2---|
G|---2---|
D|---2---|
A|---2---|
E|-------|

And there you have it, the correct way to play Ghost by Slash. Not too hard is it ;)

Enjoy!
Comments