Slapstick - The Park Chords & Tabs

 

The Park Chords & Tabs

Slapstick Chords & Tabs

Version: 2 Type: Bass Tab 0 ratings
1 star 2 stars 3 stars 4 stars 5 stars
comments

The Park Bass Tab

THE PARK
By: Slapstick
From the album: 25 songs
Tab by: Aron Orosz


Intro
G:-----------------------------------------------------------
D:-----------------------------------------------------------
A:----0----7----5--5-5--5-5--------7--7-5--------------------
E:------------------------------5-5--------------------------


Verse

G:---------------------------------------------------------------------------
D:---------------------------------------------------------------------------
A:-------------0-000000-7-777777-5-555555------7-7-5-------------------------
E:---------------------------------------------------5-5-------------(Repeat)


Chorus
G:----------------------------------------------------------------------------------------------------------------------
D:------------------------------------------------------------------------------------------------7--7-7-777-5--5-5-
A:5555---0-0-00-0-0-000-0-0--5--5-55-5-5-555555--0-0-000------------------------------------------------
E:-----------------------------------------------------------------------------------------------------------------------
[ Tab from: http://www.guitartabs.cc/tabs/s/slapstick/the_park_btab_ver_2.html ]
G:----------------------------------------------------------------------------------------------------------------------
D:-----------------------------------------------------------------------------------------------0-0-0000-0-0-05-
A:5-55-7--7-77-7-7777-0-------------------------------------------------------------------------------------------
E:-----------------------------------------------------------------------------------------------------------------------




break down (the best part)

G:----------------------------------------------------------------------------------------------------------------------
D:-----------------------------------------------------------------------------------------------------------------------
A:0-0-0-0-0-0-0-0-0-0-0-0-0-0-0-0-5-5-5-5-5-5-5-5-7-7-7-7-7-7-7-7-------------12/1---------------------
E:-----------------------------------------------------------------------------------------------------------------------


bridge

G:----------------------------------------------------------------------------------------------------------------------
D:------0--0-0-000-------------------------------------------------------------------------0--0-0-000--------------
A:----0-0-0-0-0-0-0-0-0-0-0-0-0-0-0-0-0--< (let ring)-----------------------------------------------------------
E------------------------------------------------------------------------------------------------------------------------





Sorry, this tab isn't laid out real well but you should get the idea. I'll try to post more later. I think thats just about all of it. I you have any
corrections send them to me at killtaker@hotmail.com 
Comments