Slapstick - Not Tonight Chords & Tabs

 

Not Tonight Chords & Tabs

Slapstick Chords & Tabs

Version: 1 Type: Bass Tab 0 ratings
1 star 2 stars 3 stars 4 stars 5 stars
comments

Not Tonight Bass Tab

Song: Not Tonight
Band: Slapstick 
Album: Slapstick
tabbed by: Pezman0014

hey E-mail me with any info Pezman0014@aol.com

INTRO:
G:---------------------------------------------------------------
D:---------------------------------------------------------------
A:3-----3-------3---------------------------------------------------
E:---------------------------------------------------------------
[ Tab from: http://www.guitartabs.cc/tabs/s/slapstick/not_tonight_btab.html ]
CHORUS:
G:---------------------------------------------------------------
D:---------------------------------------------------------------
A:3-3-3-----------7-7-7--5-5-5-5-------------------------------------------
E:---------1-1-1----------------------------------------------------

VERSE:
G:---------------------------------------------------------------
D:---------------------------------------------------------------
A:------------------------3-3-3-3------------------------------------
E:3-3-3-3--1-1-1-1-------------------------------------------------------



Comments