Slapstick - Ed Chords & Tabs

 

Ed Chords & Tabs

Slapstick Chords & Tabs

Version: 1 Type: Bass Tab 0 ratings
1 star 2 stars 3 stars 4 stars 5 stars
comments

Ed Bass Tab

Song: ED
Band: Slapstick
Album:Slapstick
tabbed by: Pezman0014

Slapstick is my absolute favorite band in the world. i love these guys.
this
is a easy song to play on guitar.. e-mail me Pezman0014@aol.com

INTRO:
G:---------------------------------------------------------------
D:---------------------------------------------------------------
A:3-3-3-3-3-3----------------------------------------------------------

E:----------------5-5-5-5-5-5--3-3-3-3-3-3--1-1-1-1-1-1-----------------------
-----
[ Tab from: http://www.guitartabs.cc/tabs/s/slapstick/ed_btab.html ]
VERSE:
G:---------------------------------------------------------------
D:---------------------------------------------------------------
A:3-3-3-3-3-3----------------------------------------------------------

E:-----------------5-5-5-5-5-5--3-3-3-3-3-3--1-1-1-1-1-1----------------------
-----

BRIDGE:
G:---------------------------------------------------------------
D:---------------------------------------------------------------

A:3-3-3-3-3-3-3-------------------------5-5-5-5-5-5-5-5-----------------------
--
E:--------------------3-3-3-3-3-3-3-3-------------------------1-----------

CHORUS:
G:---------------------------------------------------------------
D:---------------------------------------------------------------
A:3-3-3-3-3-3----------------------------------------------------------

E:-----------------3-3-3-3-3-3--5-5-5-5-5-5--1-1-1-1-1-1----------------------
-----



Comments