Slapshock - Wake Up Chords & Tabs

 

Wake Up Chords & Tabs

Slapshock Chords & Tabs

Version: 5 Type: Tab 0 ratings
1 star 2 stars 3 stars 4 stars 5 stars
comments

Wake Up Tab

   
Song: Wake Up
Artist: Slapshock
Album: Project 11-41
Transcribed by: Marniel Joseph

Drop D Tuning (C G C F A D)

Just figure the strummuing on the chorus, bridge and in the outro just listen
to the song..........this tab is so easy so.....ENJOY!!!!!

Intro:
D|------------------------|
A|------------------------|
F|------------------------|
C|------------------------|
G|--7-7-7-7-7-5^7-8^7-----|
C|------------------------|

D|----------------------|-------------------|
A|----------------------|-------------------|
F|----------------------|-------------------|
C|--2-2-2-2-2-0^2-3^2---|--7-7-7-7/8-8-8-8--|
G|--2-2-2-2-2-0^2-3^2---|--7-7-7-7/8-8-8-8--|
C|--2-2-2-2-2-0^2-3^2---|--7-7-7-7/8-8-8-8--|

Verse:
D|-----------------------------------------|
A|-----------------------------------------|
F|-----------------------------------------|
C|-----------------------------7--7-7^8----|
G|--7--7-7^8-7--7-7^8-7--7-7^8-------------|
C|-----------------------------------------|

Pre Chorus:
D|------------------------------------|
A|------------------------------------|
F|------------------------------------|
C|--2--2--3-2--2--3-2--2--3/7--7-8----|
G|--2--2--3-2--2--3-2--2--3/7--7-8----|
C|--2--2--3-2--2--3-2--2--3/7--7-8----|
[ Tab from: http://www.guitartabs.cc/tabs/s/slapshock/wake_up_tab_ver_5.html ]
Chorus:
D|----------------------|-------------------|
A|----------------------|-------------------|
F|----------------------|-------------------|
C|--2-2-2-2-2-0^2-3^2---|--7-7-7-7/8-8-8-8--|
G|--2-2-2-2-2-0^2-3^2---|--7-7-7-7/8-8-8-8--|
C|--2-2-2-2-2-0^2-3^2---|--7-7-7-7/8-8-8-8--|

repeat the verse, pre chorus and chorus

Bridge:
D|--------------------------|
A|--------------------------|
F|--------------------------|
C|--2~--2-2--3-3--2-2-2-----|
G|--2~--2-2--3-3--2-2-2-----|
C|--2~--2-2--3-3--2-2-2-----|

Guitar I:                     Guitar II:
D|--------------------------||--------------|
A|--------------------------||--------------|
F|--------------------------||--------------|
C|--2-3---------------------||----8---10----|
G|--2-3---------------------||--7---9-------|
C|--2-3---------------------||--------------|

D|---------------|
A|---------------|
F|---------------|
C|--2------3-----|
G|--2------3-----|
C|--2------3-----|

repeat chorus

Outro:
D|---------------------|---------------------|
A|---------------------|---------------------|
F|---------------------|---------------------|
C|--2-2-2-2-2-0^2-3^2--|--3-3-3-3-3-1^3-4^3--|
G|--2-2-2-2-2-0^2-3^2--|--3-3-3-3-3-1^3-4^3--|
C|--2-2-2-2-2-0^2-3^2--|--3-3-3-3-3-1^3-4^3--|

D|-----------|
A|-----------|
F|-----------|
C|--2-2-2-2--|
G|--2-2-2-2--|
C|--2-2-2-2--|
Comments