Slapshock - Wake Up Chords & Tabs

 

Wake Up Chords & Tabs

Slapshock Chords & Tabs

Version: 3 Type: Tab 0 ratings
1 star 2 stars 3 stars 4 stars 5 stars
comments

Wake Up Tab

song:wake up
album:project 11-41
artist:slapshit
tabbed by:leander m.

legend:
) break or pause in a second
. palm mute
p pull off
h hammer on
\ slide down
/slide up
() natural harmonics
<> pinch harmonics
tune drop D
Intro:
E|---------------------    ---------------------|
B|---------------------    ---------------------|
G|---------------------(3x)---------------------|
D|--0-0-0-0-0---0-1-0--    --0-0-0-0-0---0-1-0--|
A|------------3--------    ------------3--------|
D|---------------------    ---------------------|
    . . . . . . . . .
(riff I)
E|---------------------    ---------------------------|
B|---------------------    ---------------------------|
G|---------------------(3x)---------------------------|(repeat)
D|--0-0-0-0-0-5-0-1-0--    --0-0-0-0-5-5-5-5-6-6-6-6--|
A|--0-0-0-0-0-3-0-1-0--    --0-0-0-0-5-5-5-5-6-6-6-6--|
D|--0-0-0-0-0-0-0-1-0--    --0-0-0-0-5-5-5-5-6-6-6-6--|
     ) ) ) )
  stanza(guitarI)
E|------------------|
B|------------------|
G|------------------|
D|----0--0-------0--|
A|--0-0--0-1-1-1-0--|
D|--0-0--0-1-1-1-0--|
    .      . . .
E|----------------------------------------|
B|----------------------------------------|
G|----------------------------------------|
D|-----------------------------5-5-5-6----|
A|--5--5-5-6-5--5-5-6-5--5-5-6---------5--|
D|----------------------------------------|

pre-chorus
E|--------------------------------------------|
B|--------------------------------------------|
G|--------------------------------------------|
D|--0-0-0-0h1p0-0-0-0h1p0-0-0-0h1-5--5-5-5/6--|(repeat w/out pause)
A|--0-0-0-0h1p0-0-0-0h1p0-0-0-0h1-5--5-5-5/6--|
D|--0-0-0-0h1p0-0-0-0h1p0-0-0-0h1-5--5-5-5/6--|
     )         )         )         )
chorus(same as riff I)
[ Tab from: http://www.guitartabs.cc/tabs/s/slapshock/wake_up_tab_ver_3.html ]
stanza
pre-chorus 
chorus
  
  bridge:
E|------------------------||---------------------------|
B|------------------------||---------------------------|
G|------------------------||---------------------------|
D|--0~-1--1-0-0------0-0--||--0~-----1-1--0-0-----0-0--|
A|--0~-1--1-0-0------0-0--||--0~-0-0-1-1--0-0-0-0-0-0--|
D|--0~-1--1-0-0--0-0-0-0--||--0~-0-0-1-1--0-0-0-0-0-0--|
        )  ) ) ) . .             . .       ) ). .  
guitar I
E|------------------|------------------|------------------|------------------|
B|------------------|------------------|------------------|------------------|
G|------------------|------------------|------------------|------------------|
D|--0-0------0-0-0--|--0-0--0-0-0-0-0--|--1-1------1-1-1--|--1-1--1-1-1-1-1--|
A|--0-0--0-0-0-0-0--|--0-0--0-0-0-0-0--|--1-1--1-1-1-1-1--|--1-1--1-1-1-1-1--|
D|--0-0--0-0-0-0-0--|--0-0--0-0-0-0-0--|--1-1--1-1-1-1-1--|--1-1--1-1-1-1-1--|
     ) ) . .            ) )                ) ) . .            ) )
guitar II
E|-----------------------------------------------------------------------------|
B|-----------------------------------------------------------------------------|
G|-----------------------------------------------------------------------------|
D|----------7-7-7-7---------7-7-7-7-----7-7-7-7-7-7-----7-7-7---------7-7-7-7--|
A|--5-5-5-5---------5-5-5-5---------5-5-------------5-5-------5-5-5-5----------|
D|-----------------------------------------------------------------------------|
    . . . . . . . . . . . . . . . . . . . . . . . . . . . . . . . . . . . . . 
E|-----------------------------------------------------------------------------|
B|-----------------------------------------------------------------------------|
G|-----------------------------------------------------------------------------|
D|----------8-8-8-8---------8-8-8-8-----8-8-8-8-8-8-----8-8-8---------8-8-8-8--|
A|--6-6-6-6---------6-6-6-6---------6-6-------------6-6-------6-6-6-6----------|
D|-----------------------------------------------------------------------------|
    . . . . . . . . . . . . . . . . . . . . . . . . . . . . . . . . . . . . . 
E|--------------    ----------------------------|
B|--------------    ----------------------------|
G|--------------    ----------------------------|
D|--0-0-7-7-7-7-(2x)--0-0-7-7-7-7--0-0-7-7-7-7--|
A|--0-0-7-7-7-7-    --0-0-7-7-7-7--0-0-7-7-7-7--|
D|--0-0-7-7-7-7-    --0-0-7-7-7-7--0-0-7-7-7-7--|

E|--------------    ----------------------------|
B|--------------    ----------------------------|
G|--------------    ----------------------------|
D|--1-1-3-3-3-3-(2x)--1-1-3-3-3-3--1-1-3-3-3-3--|
A|--1-1-1-1-1-1-    --1-1-1-1-1-1--1-1-1-1-1-1--|
D|--1-1-0-0-0-0-    --1-1-0-0-0-0--1-1-0-0-0-0--|

E|----------------------|    ----------------------|
B|----------------------|    ----------------------|
G|----------------------|    ----------------------|
D|--0-5-0-0--5-0-0------|(2x)--1-0-0-1--0-0-1------|
A|--0-3-0-0--3-0-0-0-0--|    --1-0-0-1--0-0-1-1-1--|
D|--0-0-0-0--0-0-0-0-0--|    --1-0-0-1--0-0-1-1-1--|
                   . .                        . .
(chorus)
I work this song in an acoustic guitar sorry If this is wrong
coz my elec. guitar has no strings and I change his pick ups 

End

tabbed by leander_85@yahoo.com
          text/call 09193216020
Comments