Slapshock - Wake Up Chords & Tabs

 

Wake Up Chords & Tabs

Slapshock Chords & Tabs

Version: 1 Type: Bass Tab 0 ratings
1 star 2 stars 3 stars 4 stars 5 stars
comments

Wake Up Bass Tab

wake up
slapshock
bass tab
tuning: dropped D (DADG)

intro/choruses
|-------------------------------------------------------------------------|
|-------------------------------------------------------------------------|
|-------------------------------------------------------------------------|
|--0-0-0-0-3-0-1-0--0-0-0-0-3-0-1-0--0-0-0-0-3-0-1-0--0-0-0-0-5-5-6-6-----|

verses
|-----------------------------|
|-----------------------------| 
|-----------------------------| repeat until it's needed
|-0-0--0--1-1-1--0------------|
[ Tab from: http://www.guitartabs.cc/tabs/s/slapshock/wake_up_btab.html ]
pre-cho:
|-------------------------------------------------|
|-------------------------------------------------|
|-------------------------------------------------| repeat until chorus w/o
|-0-0-0-0h1p0-0-0-0h1p0-0-0-0h1p0-5-5-5-5/6-------| stopping

bridge
|----------------------------------------------------|
|----------------------------------------------------|
|----------------------------------------------------|
|-0~~-1--1-0-0--0-0-0-0---0~~-0-0-1-1-0-0--0-0-0-0---|

|-----------------------------------------------------|
|-----------------------------------------------------|
|-----------------------------------------------------|
|--0-0--0-0-0-0-0---0-0--0-0-0-0-0--------------------|

|-----------------------------------------------------|
|-----------------------------------------------------|
|-----------------------------------------------------|
|--1-1--1-1-1-1-1---1-1--1-1-1-1-1--------------------|
Comments