Slapshock - Takot Sayo Chords & Tabs

 

Takot Sayo Chords & Tabs

Slapshock Chords & Tabs

Version: 2 Type: Tab 0 ratings
1 star 2 stars 3 stars 4 stars 5 stars
comments

Takot Sayo Tab

   
  TAKOT SA 'YO
Guitar Tabs
Transcribed by: Jerry Basco 
TUNING: D G C F A D (whole step down) 
INTRO:
D|---------------------------|
A|---------------------------|
F|---------------------------|
C|---------------------------|
G|--5\4-2--2-5\4-2--2-4/5-4--|
D|--3\2-0--0-3\2-0--0-2/3-2--|

PRE-VERSE:
D|---------------------------|
A|---------------------------|
F|---------------------------|
C|---------------------------|
G|--5\4-2--2-5\4-2--2-4/5-4--|
D|--3\2-0--0-3\2-0--0-2/3-2--|

VERSE: (.............4x) (.............4x)
D|--------------------------------------------------------------|
A|--------------------------------------------------------------|
F|--------------------------------------------------------------|
C|--------------------------------------------------------------|
G|---------------------------------------------2-4-2-4---12-14--|
D|--0-2-0-2---10-12------0-2-0-2---10-12-------0-2-0-2---10-12--|
[ Tab from: http://www.guitartabs.cc/tabs/s/slapshock/takot_sayo_tab_ver_2.html ]
CHORUS:
D|------------------------------------------------|
A|------------------------------------------------|
F|---------------------------------7-----9----11--|
C|------------------------------------------------|
G|--4-4--x-4-4--x-4-4--x-4-4-------5-----7-----9--|
D|--2-2--x-2-2--x-2-2--x-2-2----------------------|
(...........sus)
BRIDGE: (.................................8x)
D|-------------------------------------------------------| |------------------|
F|-------------------------------------------------------| |------------------|
C|--4----------------------------------------------9^11--| |------------------|
G|--4---------------10-9-9-9-9-9-9-10--10--10-10-9-------| |----4-4--4-4/5-5--|
D|--2----------------------------------------------------| |--0-2-2--2-2/3-3--|
...........sus
OUTRO: (...................4x)
D|-----------------------------------------|
A|-----------------------------------------|
F|-----------------------------------------|
C|-----------------------------(12^14-12)--|
G|--4-4--2-4-------------------------------|
D|--2-2--0-2---------10-12------10^12-10---|
......sus .....sus
Song Structure: Legend:
Intro / = slide up
Pre-Verse \ = slide down
Verse ^ = hammer on
Chorus sus = sustain
Pre-Verse
Verse
Chorus
Bridge
Pre-Verse
Chorus
Pre-Verse
Outro
Comments