Slapshock - Sunday Shivers Chords & Tabs

 

Sunday Shivers Chords & Tabs

Slapshock Chords & Tabs

Version: 1 Type: Tab 0 ratings
1 star 2 stars 3 stars 4 stars 5 stars
comments

Sunday Shivers Tab

   
hey wat's up dude!, it's me again RoCk3r_GuItArIsT,ito yung una kng tab ng
Slap Shock sa Alm=bum na Priject 11-41 sana magustuhan ninyo tng Sunday Shivers
na ti-nab ko,anyway have fun wit dis 1

TUUNING:(Drop D)
D A D G B E 
Intro 1(Guitar 1)
E|-----------------------------------------------------------------------
B|-----------------------------------------------------------------------
G|-----------------------------------------------------------------------
D|-0x0x0h1-1p0---0x0x0h1-1p0--10-10-10-10--0x0x0h1-1h20-0-10-10-10-10----
A|-0x0x0h1-1p0---0x0x0h1-1p0--8--8--8--8---0x0x0h1-1h20-0-8--8--8--8-----
D|-0x0x0h1-1p0---0x0x0h1-1p0--0--0--0--0---0x0x0h1-1h20-0----------------

(Guitar 1)      (GUITAR 2)
E|------------||-21-21-21-21-|---------------------------------
B|------------||-------------|---------------------------------
G|------------||-------------|---------------------------------
D|-0x0h1p0----||-------------|-0x0x0h1p0--10-10-10-10----------
A|-0x0h1p0----||-------------|-0x0x0h1p0--8--8--8--8-----------
D|-0x0h1p0----||-------------|-0x0x0h1p0-----------------------


VERSE (GUITAR 1)Accoustic
E|------------------------------------------------
B|------------------------------------------------
G|7-7-7-7-8-8-8-----------------------------------
D|7-7-7-7-8-8-8-----------------------------------
A|5-5-5-5-6-6-6--6--9--8--6--5--------------------
D|------------------------------------------------

GUITAR 2(Flanger)
E|-----3-----5--3---3--5--3-----11-15---11--17--15---------
B|---6-----6-------6--6-------15------15-------------------
G|-7-----7--------7--7-------------------------------------
D|---------------------------------------------------------
A|---------------------------------------------------------
D|---------------------------------------------------------

Pre-Chorus(Guitar 1)
E|-----------------------------------------
B|-----------------------------------------
G|-----------------------------------------
D|-7777777-8888----------------------------
A|-5555555-6666----------------------------
D|-----------------------------------------

(Guitar 2)
E|----------------------------------------------------
B|----------------------------------------------------
G|-7777777--8888--------------------------------------
D|-xxxxxxx--xxxx--------------------------------------
A|-5555555--6666--------------------------------------
D|----------------------------------------------------

CHORUS
(Guitar 1)      (GUITAR 2)
E|------------||-21-21-21-21-|---------------------------------
B|------------||-------------|---------------------------------
G|------------||-------------|---------------------------------
D|-0x0h1p0----||-------------|-0x0x0h1p0--10-10-10-10----------
A|-0x0h1p0----||-------------|-0x0x0h1p0--8--8--8--8-----------
D|-0x0h1p0----||-------------|-0x0x0h1p0-----------------------


VERSE (GUITAR 1)Accoustic
E|------------------------------------------------
B|------------------------------------------------
G|7-7-7-7-8-8-8-----------------------------------
D|7-7-7-7-8-8-8-----------------------------------
A|5-5-5-5-6-6-6--6--9--8--6--5--------------------
D|------------------------------------------------

GUITAR 2(Flanger)
E|-----3-----5--3---3--5--3-----11-15---11--17--15---------
B|---6-----6-------6--6-------15------15-------------------
G|-7-----7--------7--7-------------------------------------
D|---------------------------------------------------------
A|---------------------------------------------------------
D|---------------------------------------------------------



Pre-Chorus(Guitar 1)
E|-----------------------------------------
B|-----------------------------------------
G|-----------------------------------------
D|-7777777-8888----------------------------
A|-5555555-6666----------------------------
D|-----------------------------------------
[ Tab from: http://www.guitartabs.cc/tabs/s/slapshock/sunday_shivers_tab.html ]
(Guitar 2)
E|----------------------------------------------------
B|----------------------------------------------------
G|-7777777--8888--------------------------------------
D|-xxxxxxx--xxxx--------------------------------------
A|-5555555--6666--------------------------------------
D|----------------------------------------------------

CHORUS
(Guitar 1)      (GUITAR 2)
E|------------||-21-21-21-21-|---------------------------------
B|------------||-------------|---------------------------------
G|------------||-------------|---------------------------------
D|-0x0h1p0----||-------------|-0x0x0h1p0--10-10-10-10----------
A|-0x0h1p0----||-------------|-0x0x0h1p0--8--8--8--8-----------
D|-0x0h1p0----||-------------|-0x0x0h1p0-----------------------


E|---------------------------------------------------------
B|---------------------------------------------------------
G|---------------------------------------------------------
D|-1h3-0-1h3-0-1h3-0-1h3-0---------------------------------
A|-1h3-0-1h3-0-1h3-0-1h3-0---------------------------------
D|-1h3-0-1h3-0-1h3-0-1h3-0---------------------------------
(then the verse and the pre chorus)

E|--------------------------------------------------------
B|--------------------------------------------------------
G|--------------------------------------------------------
D|--------------------------------------------------------
A|-------0-------0-------0-------0------0-------0---------
D|-12h13-0-12h13-0-12h13-0-12h13-0-12h130-12h13-0---------

E|----------------------------------------------------------------------
B|----------------------------------------------------------------------
G|----------------------------------------------------------------------
D|1h3-1-0-1h3-1-0-1h3-1-0-1h3-1-0-1h3-1--1h3-1-0------------------------
A|1h3-1-0-1h3-1-0-1h3-1-0-1h3-1-0-1h3-1--1h3-1-0------------------------
D|1h3-1-0-1h3-1-0-1h3-1-0-1h3-1-0-1h3-1--1h3-1-0------------------------

E|------------------------------------------------------------
B|------------------------------------------------------------
G|------------------------------------------------------------
D|1h3-1-0-1h3-1-0-1h3-1-0-1h3-1-0-----------------------------
A|1h3-1-0-1h3-1-0-1h3-1-0-1h3-1-0-----------------------------
D|1h3-1-0-1h3-1-0-1h3-1-0-1h3-1-0-----------------------------

(GO!)
E|----------------------------------------------------------------------
B|----------------------------------------------------------------------
G|----------------------------------7-7--5-5-7-7------------------------
D|0x0-1h3-1-0x0-1h3-1-0x0-1h3-1-0x0-x-x--x-x-x-x------------------------
A|0x0-1h3-1-0x0-1h3-1-0x0-1h3-1-0x0-5-5--5-3-5-5------------------------
D|0x0-1h3-1-0x0-1h3-1-0x0-1h3-1-0x0-------------------------------------

E|----------------------------------------------------------------------
B|----------------------------------------------------------------------
G|-7-7-7-7--8-8-7-7----7-7-7-7-----7-7-7-7--8-8--7-7--------------------
D|-x-x-x-x--x-x-x-x----x-x-x-x-----x-x-x-x--x-x--x-x--1-1-1-1-1---9-10--
A|-5-5-5-5--6-6-5-5----5-5-5-5-----5-5-5-5--6-6--5-5--1-1-1-1-1---9-10--
D|----------------------------------------------------1-1-1-1-1---9-10--

CHORUS
(Guitar 1)      (GUITAR 2)
E|------------||-21-21-21-21-|---------------------------------
B|------------||-------------|---------------------------------
G|------------||-------------|---------------------------------
D|-0x0h1p0----||-------------|-0x0x0h1p0--10-10-10-10----------
A|-0x0h1p0----||-------------|-0x0x0h1p0--8--8--8--8-----------
D|-0x0h1p0----||-------------|-0x0x0h1p0-----------------------


Ending:
E|---------------------------------------------
B|---------------------------------------------
G|---------------------------------------------
D|0-0---0-0------------------------------------
A|0-0---0-0------------------------------------
D|0-0---0-0------------------------------------

wel mga tol tapos na,gawa to ni mathew alibang bang sana magustuhan ninyo
pag nakakarinig ako ng mga pinoy rap,SH!T T*ng ina ang sakit sa tenga parang mga
jologs any way kung my prob kyo sa tab ko e-mail nyo nlng ako sa
rock3r_Guitarist@yahoo.com o kya sa Mat_cyclops15 @ yahoo.com
thnk u sa lahat
ROCK RULEZ!!!!!!!!!!
GOD BLESS
Comments