Slapshock - Sulok Chords & Tabs

 

Sulok Chords & Tabs

Slapshock Chords & Tabs

Version: 1 Type: Tab 0 ratings
1 star 2 stars 3 stars 4 stars 5 stars
comments

Sulok Tab

                          "SULOK" BY SLAPSHOCK
                        transcribed by:freongang              
                   visit me at: freongang_81@yahoo.com
                         freongang_08@yahoo.com             
        
        NOTE: FOR THOSE WHO EMAIL ME AND REQUESTING FOR TABS...
                   "PUTANG INA SALAMAT SA TIWALA NYO?!?!"

Tuning:dropped D
intro:   
 |--------------------------------------|
 |-----7/8------7/8------7/8------9-----|
 |-7-7------7-7------7-7------7-7-------|
 |--------------------------------------|
 |--------------------------------------|
 |--------------------------------------|
   then procee here
 |--------------------------------------------|
 |--------------------------------------------|
 |--------------------------------------------|
 |---7------5/6------5/6------5/6------7------|
 |---7--5-5------5-5------5-5------5-5--------|
 |---0----------------------------------------|
[ Tab from: http://www.guitartabs.cc/tabs/s/slapshock/sulok_tab.html ]
 WAAAAAAAAAHHHH...... (repeat)
 |-----------------------------------------------|
 |-----------------------------------------------|
 |-----------------------------------------------|
 |-----------------------------------------------|
 |-----------------------------------------------|
 |-0-0-2/3--0-0-0-0-2/3--0-0-2/3--0-0-0-0-2/3----|

 |----  -------  --------------  --------  ---------  ---|
 |----  -------  --------------  --------  ---------  ---|
 |----  -------  --------------  --------  ---------  ---|
 |--7-  -6-6-6-  --5-5-5-4-4-4-  --3-3-3-  -1-1-1-1-  -2-|
 |--7-  -6-6-6-  --5-5-5-4-4-4-  --3-3-3-  -1-1-1-1-  -2-|
 |--0-  -0-0-0-  --0-0-0-0-0-0-  --0-0-0-  -0-0-0-0-  -0-
 
 di makausap sa takot bangungot... (repeat)
 |-------------------------------------|
 |-------------------------------------|
 |-------------------------------------|
 |-------------------------------------|
 |-------------------------------------|
 |-0-0-0-2-2-2-0-0-0-2-2-2-0-0-0-2/3---|

 buksan mo aking mata.... (repeat)
 |------------------------------------------------|
 |------------------------------------------------|
 |------------------------------------------------|
 |------------------------------------------------|
 |------------------------------------------------|
 |-0-0-2/3--0-0-0-0-2/3---0-0-2/3---0-0-0-0-2/3---|

              just follow the sequence
Comments