Slapshock - Something Beautiful Chords & Tabs

 

Something Beautiful Chords & Tabs

Slapshock Chords & Tabs

Version: 1 Type: Tab 0 ratings
1 star 2 stars 3 stars 4 stars 5 stars
comments

Something Beautiful Tab

                   "SOMETHING BEAUTIFUL" BY SLAPSHOCK
                   visit me at:freongang_81@yahoo.com
                         freongang_08@yahoo.com

                   "MY FAVORITE SONG IN NOVENA ALBUM..."

Tuning:dropped D

 intro:   X2
 |-12-14-15-------------------------------------------------------|
 |-------------12-13-15----13-15-16-----13-12-13-13-13-12-13-12---|
 |----------------------------------------------------------------|
 |----------------------------------------------------------------|
 |----------------------------------------------------------------|
 |----------------------------------------------------------------|
[ Tab from: http://www.guitartabs.cc/tabs/s/slapshock/something_beautiful_tab.html ]
 |---------------------------------------------------------------------|
 |---------------------------------------------------------------------|
 |---------------------------------------------------------------------|
 |---------------------------------------------------------------------|
 |---------------------------------------------------------------------|
 |-0-0-0-2-2-2-0-0-0-2-2-2-1-1-1-----0-0-0-2-2-2-0-0-0-2-2-2-1-1-1-----|

 i giving you awake...
e|------------------------------------------|
B|------------------------------------------|
G|-4-4-4--4-4-4-----4-4-4---4-4-4-5---------|
D|-4-4-4--4-4-4-----4-4-4---4-4-4-5---------|
A|-2-2-2--2-2-2-----2-2-2---2-2-2-3---------|
E|------------------------------------------|
   
 and i want you, i want you...
 |--------------------------------------|
 |--------------------------------------|
 |---9--10-10--11-11--10-10--11-10------|
 |---9--10-10--11-11--10-10--11-10------|
 |---7--8--8---9--9---8--8---9--8-------|
 |--------------------------------------|

   i want you, to remind me...   X2
 |------------------------------------------------|
 |------------------------------------------------|
 |--5-5--5---9-9--9--10-10--10---7-7-7-8-8-8--6---|
 |--5-5--5---9-9--9--10-10--10---7-7-7-8-8-8--6---|
 |--3-3--3---7-7--7--8--8---8----5-5-5-6-6-6--4---|
 |------------------------------------------------|

            <<<>>>
Comments