Slapshock - Sick Curtain Chords & Tabs

 

Sick Curtain Chords & Tabs

Slapshock Chords & Tabs

Version: 1 Type: Tab 0 ratings
1 star 2 stars 3 stars 4 stars 5 stars
comments

Sick Curtain Tab

   
SICK CURTAIN
Guitar Tabs
Transcribed by: Reg Leonora 
TUNING: D G C F A D (whole step down)

INTRO: (repeat.......................................... 4x)
D|------------------------------------------------------|
A|------------------------------------------------------|
F|--9/11--11-11----9/11-11-11---11--11---11/12--12--12--|
C|------------------------------------------------------|
G|--7/9---9--9-----7/9--9--9----9---9----9/10---10--10--|
D|------------------------------------------------------|

(4x.......................................)
D|--------------------------------------------| |----------------------------------|
A|--------------------------------------------| |--5^7-7-7--5^7-7-7--7-7--7/8-8-8--|
F|--------------------------------------------| |----------------------------------|
C|--------------------------------------------| |----------------------------------|
G|-------4--4---------4--4---4--4--4/5--5--5--| |----------------------------------|
D|--0^2--2--2----0^2--2--2---2--2--2/3--3--3--| |----------------------------------|

(7x.......................................)
D|--------------------------------------------| |-------------------------|
A|--------------------------------------------| |-------------------------|
F|--------------------------------------------| |-------------------------|
C|--------------------------------------------| |-------------------------|
G|-------4--4---------4--4---4--4--4/5--5--5--| |-------4--4--------4--5--|
D|--0^2--2--2----0^2--2--2---2--2--2/3--3--3--| |--0^2--2--2---0^2--2--3--|
....sus 
VERSE:
D|---------------------|
A|---------------------|
F|---------------------|
C|---------------------|
G|---------------------|
D|--2--2-0-2--2-0-2-3--|

CHORUS:
D|-----------------------------------------| |----------------------|
A|-----------------------------------------| |----------------------|
F|-----------------------------------------| |----------------------|
C|--4-------2------------------------------| |----------------------|
G|--4-------2-------4--4-4-2-4--4-4-2-4-5--| |--5--4--2----5--4--2--|
D|--2-------0-------2--2-2-0-2--2-2-0-2-3--| |--3--2--0----3--2--0--|
[ Tab from: http://www.guitartabs.cc/tabs/s/slapshock/sick_curtain_tab.html ]
[BASS LINES]
Guitar part.................4x) ..........................4x)
D|------------------------| |--------------------------------|
A|------------------------| |--------------------------------|
F|------------------------| |--11/12------------------11/12--|
C|------------------------| |--------------------------------|
G|--7^9-9-9-7^9-9-9-9/10--| |---------7^9-9-9-7^9-9-9--------|
D|------------------------| |--------------------------------|
Guitar part.................4x) ..........................4x)
D|------------------------| |--------------------------------|
A|------------------------| |--------------------------------|
F|------------------------| |--11/12------------------11/12--|
C|------------------------| |--------------------------------|
G|--7^9-9-9-7^9-9-9-9/10--| |---------7^9-9-9-7^9-9-9--------|
D|------------------------| |--------------------------------|

[BASS LINES]
Guitar part.................4x) ..........................4x)
D|------------------------| |--------------------------------|
A|------------------------| |--------------------------------|
F|------------------------| |--11/12------------------11/12--|
C|------------------------| |--------------------------------|
G|--7^9-9-9-7^9-9-9-9/10--| |---------7^9-9-9-7^9-9-9--------|
D|------------------------| |--------------------------------|


BRIDGE: ...........................4x)
D|---------------------------------|
A|---------------------------------|
F|---------------------------------|
C|---------------------------------|
G|--4--4-2-4--4-2-4-5----4--4-4-5--|
D|--2--2-0-2--2-0-2-3----2--2-2-3--|

..................8x}
D|-----------------------|
A|-----------------------|
F|-----------------------|
C|---------5--------5-5--|
G|---------4--------4-4--|
D|--2--2-2----2-2-2------|

Outro:
D|----------------------------------------------------------------------------|
A|--------------------------------------------5^7-7-7--5^7-7-7--7-7--7/8-8-8--|
F|----------------------------------------------------------------------------|
C|----------------------------------------------------------------------------|
G|--5--4--2----5--4--2----5--4--2----5--4--2----------------------------------|
D|--3--2--0----3--2--0----3--2--0----3--2--0----------------------------------|

D|---------------------------------------|
A|---------------------------------------|
F|---------------------------------------|
C|---------------------------------------|
G|-------4--4---------4--4---4--4--5--5--|
D|--0^2--2--2----0^2--2--2---2--2--3--3--|

Song Structure: Legend:
Intro / = slide up
Verse ^ = hammer on
Chorus sus = sustain
Bass lines
Guitar part
Verse
Chorus
Bridge
Chorus
Outro 

Hi, sa mga utol ko dyan, Gary, Jimboy, Charles, Ronnie, Ronel,
Biboy, Eddy, Israel and to all the other members of the band
Kiddie Mealz ... Para sa inyo ito tol! 
(pinabudlayan ko gid ang pagkapa sini)
Peace Out!!!
-Wednesday, April 30, 2003, 9:42 PM-
-rage-

Comments