Slapshock - Sex Freak Chords & Tabs

 

Sex Freak Chords & Tabs

Slapshock Chords & Tabs

Version: 1 Type: Tab 0 ratings
1 star 2 stars 3 stars 4 stars 5 stars
comments

Sex Freak Tab

-----------------------------------------------------------------------------
This file is the author's own work and represents their interpretation of the
song.You may only use this file for private study, scholarship, or research.
-----------------------------------------------------------------------------

SONG: Sex Freak
BAND: Slapshock 
ALBUM: 4th Degree Burn
TRANSCRIBED BY: SHERLOCK FRANCIS CODILLA
email:  (sharlock_francis@yahoo.com)


Tuning: Tune guitar whole step down (DGCFAD) then drop d. 

LEGEND:

/ or \   - slide up or down
p        - pull off
h	 - hammer on
p.m. --- - palm mute
b        - bend

Intro:
D ------------   ------------
A ------------   ------------
F --7--8-5-7--   --7--5-10-7-
C ------------3x ------------
G --5--6-3-5--   --5--3--8-5-
D ------------   ------------

D --------------------------------------------------
A --------------------------------------------------
F ----------7-7---------7-7---------8-8---------8-8-4x
C --------------------------------------------------
G --0-1p0-0-5-5-0-1p0-0-5-5-0-1p0-0-6-6-0-1p0-0-6-6-
D --0-1p0-0-----0-1p0-0-----0-1p0-0-----0-1p0-0-----

Verse:
D ----------------   ----------------
A ----------------   ----------------
F ----------------3x -------------8-7
C ----------------   ---------------- (6x)
G --0-1p0--0-0-0--   --0-1p0--0-0-6-5
D --0-1p0--0-0-0--   --0-1p0--0-0----

D ------------------   ----------------
A ------------------   ----------------
F ------------------3x -------------8-7
C ------------------   ---------------- (2x)
G --0-1p0--0-0-0-0-0   --0-1p0--0-0-6-5
D --0-1p0--0-0-0-0-0   --0-1p0--0-0----
p.m.       - - - - -

Chorus:
[ Tab from: http://www.guitartabs.cc/tabs/s/slapshock/sex_freak_tab.html ]
D --------------------------------------------------
A --------------------------------------------------
F ----------7-7---------7-7---------8-8---------8-8-4x
C --------------------------------------------------
G --0-1p0-0-5-5-0-1p0-0-5-5-0-1p0-0-6-6-0-1p0-0-6-6-
D --0-1p0-0-----0-1p0-0-----0-1p0-0-----0-1p0-0-----

D ----------------   ----------------
A ----------------   ----------------
F ----------------3x -------------8-7
C ----------------   ---------------- (2x)
G --0-1p0--0-0-0--   --0-1p0--0-0-6-5
D --0-1p0--0-0-0--   --0-1p0--0-0----

repeat verse and chorus

D -------18--18\-------18--18\--
A ------------------------------
F -14/15----------14h15---------2x
C ------------------------------
G ------------------------------
D ------------------------------

Bridge:
D ------------------
A ------------------
F ------------------4x
C ------------------
G --0-0--0-0--0-0---
D --0-0--0-0--0-0---
p.m.- -  - -  - -

D -----------
A -----------
F -----------
C -----------
G --0~~--1-1-
D --0~~--1-1-
p.m.     - -

D -------------------------
A -------------------------
F -------------------------4x
C -------------------------
G --0-0-0-1p0-1p0-0-0-0-1--
D --0-0-0-1p0-1p0-0-0-0-1--
p.m.- - -         - - -

repeat chorus

D ------------------------------
A ------------------------------
F --------------------------7-7-3x
C ------------------------------
G --0-1p0-0-0-1p0-0-0-1p0-0-5-5-
D --0-1p0-0-0-1p0-0-0-1p0-0-----


D ------------------------------
A ------------------------------
F -----------------------------3x
C ------------------------------
G --0-1p0-0-0-1p0-0-0-1p0-0-1-1-
D --0-1p0-0-0-1p0-0-0-1p0-0-1-1-


NOTE:I just figured this stuff out but i combined some riffs frome the original one.
I'm sure this is 99.9% correct.

_end_

 
Comments