Slapshock - Queen Paranoia Chords & Tabs

 

Queen Paranoia Chords & Tabs

Slapshock Chords & Tabs

Version: 8 Type: Tab 0 ratings
1 star 2 stars 3 stars 4 stars 5 stars
comments

Queen Paranoia Tab

   
Queen Paranoia
Slapshock
Project 11-41
Tabbed by: Jano p.

di ko alam kung tama ito pero sigurado ako 99% itong kapa ko.





Intro
   (8x)          			      (4x)
D|------------------------------------|  D|--12-12-12---12---12---12-15-----------|     
A|------------------------------------|  A|---------------------------------------|      
F|------------------------------------|  F|---------------------------------------|     
C|------9-----9---9-----9-----9/10/9--|  C|---------------------------------------|     
G|--7-7---7-7---7---------------------|  G|---------------------------------------|     
D|------------------7-7---8-8---------|  D|---------------------------------------|     
Gtr.1					 	 Gtr.2	


Verse
   (4x)
D|--------------------------------------|  D|--12-12-12--12--15--12--15--12-12-12------------------|     
A|------------8-------------------------|  A|--------------------------------------12--13--12--13--|     
F|------9-------------------------------|  F|------------------------------------------------------|       
C|--------------------7-7------10-10-9--|  C|------------------------------------------------------|     
G|--7-7---7-8----10-9-----9-10----------|  G|------------------------------------------------------|     
D|--------------------------------------|  D|------------------------------------------------------|     
Gtr.1 (half mute)				Gtr.2


Pre-Chorus

    (4x)					 ( . . . 3x . . . )
D|-----------------------------------------| |----------------------------------|     
A|--------------8--------------------------| |----------------------------------|     
F|------9----------------------------------| |--9--9-9--9-9-9------9--9-9--9-9--|       
C|----------------------7-7-------10-10-9--| |--9--9-9--9-9-9------9--9-9--9-9--|     
G|--7-7---7-7-8----10-9-----9-9-10---------| |--7--7-7--7-7-7------7--7-7--7-7--|     
D|-----------------------------------------| |----------------------------------|     



Chorus

    (8x)					        ( . . . 3x . . . )
D|-----------------------------------------------| |-----------------------------------| 
A|-----------------------------------------------| |---------------8-------------------| 
F|--9-x-x--9-9-9-x-x-x--5---5--5--7--7--7--7--7--| |---------------9-------------------| 
C|--9-x-x--9-9-9-x-x-x--5---5--5--7--7--7--7--7--| |--2--2-2--2-2--9------2--2-2--2-2--|
G|--7-x-x--7-7-7-x-x-x--3---3--3--5--5--5--5--5--| |--2--2-2--2-2--7------2--2-2--2-2--|
D|----0-0--------0-0-0---------------------------| |--0--0-0--0-0---------0--0-0--0-0--|
 							                  ...sus

Ad Lib

   (4x)                                       (2x)
D|---------------------------------|  D|--12-12-12--12--15--12--15--12-12-12------------------|     
A|---------------------------------|  A|--------------------------------------12--13--12--13--|     
F|---------------------------------|  F|------------------------------------------------------|       
C|----9----9---9--9-7----7---10-9--|  C|------------------------------------------------------|     
G|--7---7-10----10--9--9---9-------|  G|------------------------------------------------------|     
D|---------------------------------|  D|------------------------------------------------------|     
Gtr.1	                                   Gtr.2

[ Tab from: http://www.guitartabs.cc/tabs/s/slapshock/queen_paranoia_tab_ver_8.html ]
Verse
   (4x)
D|--------------------------------------|  D|--12-12-12--12--15--12--15--12-12-12------------------|     
A|------------8-------------------------|  A|--------------------------------------12--13--12--13--|     
F|------9-------------------------------|  F|------------------------------------------------------|       
C|--------------------7-7------10-10-9--|  C|------------------------------------------------------|     
G|--7-7---7-8----10-9-----9-10----------|  G|------------------------------------------------------|     
D|--------------------------------------|  D|------------------------------------------------------|     
Gtr.1 (half mute)				Gtr.2


Pre-Chorus

    (4x)				        ( . . . 3x . . . )
D|-----------------------------------------| |----------------------------------|     
A|--------------8--------------------------| |----------------------------------|     
F|------9----------------------------------| |--9--9-9--9-9-9------9--9-9--9-9--|       
C|----------------------7-7-------10-10-9--| |--9--9-9--9-9-9------9--9-9--9-9--|     
G|--7-7---7-7-8----10-9-----9-9-10---------| |--7--7-7--7-7-7------7--7-7--7-7--|     
D|-----------------------------------------| |----------------------------------|     

Chorus

    (8x)
D|-----------------------------------------------|
A|-----------------------------------------------|
F|--9-x-x--9-9-9-x-x-x--5---5--5--7--7--7--7--7--|
C|--9-x-x--9-9-9-x-x-x--5---5--5--7--7--7--7--7--|
G|--7-x-x--7-7-7-x-x-x--3---3--3--5--5--5--5--5--|
D|----0-0--------0-0-0---------------------------|


Bridge

    (4x)
D|---------------------------------------------|
A|---------------------------------------------|
F|--9-9--------------------12-12-12-12-12-12\--|
C|--9-9--9-10--5---5--5-5----------------------|
G|--7-7--9-10--5---5--5-5--10-10-10-10-10-12\--|
D|-------7-8---3---3--3-3----------------------|
            ...sus

    (2x)
D|------------------------------------------------------------------------|
A|------------------------------------------------------------------------|
F|--4-4--4-4-4-4--4-4-4-4--4-4-4-4--4-4/-7-7-7-7-7-7-7-7-7-7-7-7-7-7-7-7--|
C|--4-4--4-4-4-4--4-4-4-4--4-4-4-4--4-4/-7-7-7-7-7-7-7-7-7-7-7-7-7-7-7-7--|
G|--2-2--2-2-2-2--2-2-2-2--2-2-2-2--2-2/-5-5-5-5-5-5-5-5-5-5-5-5-5-5-5-5--|
D|------------------------------------------------------------------------|

D|------------------------------------------|
A|------------------------------------------|
F|-------------------------------------12\--|
C|-------------------------------------12\--|
G|-/7--7-7--7-7-7-------7--7-7--7-7--7-10\--|
D|----------------8-8-7---------------------|

Chorus

    (8x)					       ( . . . 4x . . . )
D|-----------------------------------------------| |-----------------------| 
A|-----------------------------------------------| |---------------8-------| 
F|--9-x-x--9-9-9-x-x-x--5---5--5--7--7--7--7--7--| |---------------9-------| 
C|--9-x-x--9-9-9-x-x-x--5---5--5--7--7--7--7--7--| |--2--2-2--2-2--9-------|
G|--7-x-x--7-7-7-x-x-x--3---3--3--5--5--5--5--5--| |--2--2-2--2-2--7-------|
D|----0-0--------0-0-0---------------------------| |--0--0-0--0-0----------|
 							              ...sus

Outro

D|--------------------------------------------------------------------------|
A|--------------------------------------------------------------------------|
F|--9--9-9--9-9-9--9-9--9-9-9--9-9--9-9-9----9-9-9--12-12-12-9----9-9-9-9\--|
C|--9--9-9--9-9-9--9-9--9-9-9--9-9--9-9-9----9-9-9--12-12-12-9----9-9-9-9\--|
G|--7--7-7--7-7-7--7-7--7-7-7--7-7--7-7-7----7-7-7--10-10-10-7----7-7-7-7\--|
D|--------------------------------------------------------------------------|



enjoy!


astig i2 song 
rock n roll dude!

koupon b
Comments