Slapshock - Queen Paranoia Chords & Tabs

 

Queen Paranoia Chords & Tabs

Slapshock Chords & Tabs

Version: 7 Type: Tab 0 ratings
1 star 2 stars 3 stars 4 stars 5 stars
comments

Queen Paranoia Tab

song: Queen Paranoia
artist: Slapshock
album: 11-41
tabbed by: @mark_qute?
info:any comment E-mail me at mark_qute@yahoo.com, or text/call 09205736823

song legend:
. palm mute
/ slide up
\ slide down
tune guitar standard

Intro:

E|----------------------------------|
B|------7-----7-7-----7-----7/\-----|
G|----------------------------------|
D|--4-4---4-4--4--------------------|(8x)
A|-----------------4-4---5-5--------|
E|----------------------------------|

stanza
E|------------5---------------------|
B|------7---------------------------|
G|--6-6---6-6--------6-6-----7-7-6--|
D|--4-4---7-7----7-7-----7-7--------|
A|----------------------------------|
E|----------------------------------|
    . . . . . .  . . . . . . . . .
"I've been so fool of you"
E|--------------1-----------------------|
B|------7-------------------------------|
G|--6-6---6-6-6--------6-6-------7-7-6--|
D|--4-4---7-7-7----7-7-----7-7-7--------|
A|--------------------------------------|
E|--------------------------------------|
    . . . . . . .  . . . . . . . . . .
riff I( before refrain)
E|-----------------|
B|-----------------|
G|-----------------|
D|--7--7-7-7-7--7--|(4x)
A|--5--5-5-5-5--5--|
E|--0--0-0-0-0--0--|
[ Tab from: http://www.guitartabs.cc/tabs/s/slapshock/queen_paranoia_tab_ver_7.html ]
refrain:
E|------------------------------------------------------------|
B|------------------------------------------------------------|
G|------------------------------------------------------------|
D|--7------7-7-----8-8-8/10-10--7------7-7-------8-8-8/10-10--|
A|--5--5-5-5-5-----8-8-8/10-10--5--5-5-5-5-------8-8-8/10-10--|
E|--0--0-0-0-0-0-0-6-6-6/8--8---0--0-0-0-0-0-0-0-6-6-6/8--8---|
       . .     . .                 . .     . . .   
E|-----------------|
B|-----------------|
G|-----------------|
D|--7-----------7--|
A|--5--5-5-5-5--5--|
E|--0--0-0-0-0--0--|
       . . . .

ablib:(guitar II)
E|---------------13-------13--------------------|
B|--15-15--15-15----15-15----15-15--------------|
G|---------------------------------15-15-14-15--|
D|----------------------------------------------|(2x)
A|----------------------------------------------|
E|----------------------------------------------|

(repeat stanza with adlib)

bridge(D5-Bb-F)strum this one I cant count it off just hear the CD
E|---------------------------------------|
B|-------------------------6-6-6-6-6-6\--|
G|-------------------------7-7-7-7-7-7\--|(4x)
D|--7-7-7--8-8-8-8--3-3-3----------------|
A|--5-5-5--8-8-8-8--3-3-3----------------|
E|--0-0-0--6-6-6-6--1-1-1----------------|

E|-------------------------------|
B|-------------------------------|
G|-------------------------------|
D|--7-7--7-7-7--7-7-7--7-7-7-10--|(2x)
A|--7-7--7-7-7--7-7-7--7-7-7-10--|
E|--5-5--5-5-5--5-5-5--5-5-5-8---|

E|--------------------------------------|
B|--------------------------------------|
G|--------------------------------------|
D|--7-7-7-7-7-----------7-7-7-7-7--10/--|
A|--5-5-5-5-5-8-8-8-8-8-5-5-5-5-5---8/--|
E|------------6-6-6-6-6-----------------|

       (repeat refrain)
finalle riff:
E|----------------------------------------------------|
B|----------------------------------------------------|
G|----------------------------------------------------|
D|--7---7---7-7---7---7-7---7---7-7\-7-10-7--7-7-7-7--|
A|--5---5---5-5---5---5-5---5---5-5\-5-8--5--5-5-5-5--|
E|--0-0-0-0-0-0-0-0-0-0-0-0-0-0-0-0\-0-0--0--0-0-0-0--|
      .   .     .    .    .   .                        

tabbed by: @mark_qute?
Comments