Slapshock - Queen Paranoia Chords & Tabs

 

Queen Paranoia Chords & Tabs

Slapshock Chords & Tabs

Version: 5 Type: Tab 0 ratings
1 star 2 stars 3 stars 4 stars 5 stars
comments

Queen Paranoia Tab

   
Queen Paranoia
Slapahock

Standard Tuning: EADGBE

Legend:
/= slide
b= break
)= let ring
\= slide backwards

Intro:

E-----------------------------------
B-------7----7---7----7----7/8/7----
G----------------------------------   8x
D-----------------------------------
A---5-5---55---5-------------------
E------------------55---66---------

Stanza: Fig.1
*when you do this, do not press the strings too strong against
 the neck of your guitar. G? If not, I advice you to listen to
 the track.

E---------------------------------
B---------------------------------
G------7b----------7b-------------  4x
D----7------8b---7------8-8-7b----
A--5------7----5------7-----------
E--------------------------------

Stanza: Fig 1.2
*After Fig.1, do this tab. But this time, louda'!!

E---------------------------------
B--------------------------------
G------7b------------7b-------------   4x
D----7-7b-7-8b-----7-7b-7-8-8-7b----
A--5------7-8b---5------7-8-8-7b----
E--------------------------------

Fig. 2 Do this after you hear Jamir say 'those things I try to hear.'

E------------------------------------------------
B------------------------------------------------
G---7777777b---7777777b---7777777b---777777b-----
D---7777777b---7777777b---7777777b---777777b-----
A---5555555b---5555555b---5555555b---555555b-----
E---5555555b---5555555b---5555555b---555555b-----

Chorus:

E-----------------------------
B----------------------------
G---777877---------------------  8x
D---777877-8888-10101010-------
A---555655-8888-10101010-----
E----------6666-8-8-8-8------

Fig. 3 (This is where he shouts)

E---------------------------------------------
B---------------------------------------------
G----------7)--------7)--------7)-------------
D---777777-7)-777777-7)-777777-7)-7777777b-----
A---777777-5)-777777-5)-777777-5)-7777777b-----
E---555555----555555----555555----5555555b-----

After that, pause for a while, and do this. 
   (possibly clean with a little delay)
[ Tab from: http://www.guitartabs.cc/tabs/s/slapshock/queen_paranoia_tab_ver_5.html ]
E--------------7-----7----------------------
B-8-8-8)---8-9---8-9---8888)-----------8-------   Repeat 2x and slide back-
G------------------------------8-9-8h9----------  wards at the last.
D---------------------------------------------
A-------------------------------------------
E----------------------------------------------

Go back from Fig. 1 to chorus, but do not do Fig. 3. Instead, do the
tab below....

Fig. 4 *hitting the strings of your guitar after the 2nd strum (d 1 w/ a line)
        would help on the timing.

E------'------------------------------------------------------------
B------'----------------------another    guitar --101010101010\-----
G--7-7-'----------------------would enter right---101010101010\-----  4x
D--7-7-'-7-8)--8-8-8-x-x-x-x---after the last-----101010101010\-----
A--5-5-'-7-8)--8-8-8-8-8-8-8--------strum---------------------------
E------'-5-6)--6-6-6-8-8-8-8----------------------------------------

Next...
Fig. 5 *chords inside the parentheses can either be played, or not.

E--------------------------------------------------------
B---------------------------------------------------------
G---77b--777b--777b--777b--(7b)--10101010101010101010----
D---77b--777b--777b--777b--(7b)--10101010101010101010----
A---55b--555b--555b--555b--(7b)--8-8-8-8-8-8-8-8-8-8-----
E---------------------------------------------------------

Repeat 2x and break at the last time, and then, do this:

E------------------------------
B------------------------------
G--7-7-------------------------
D------7-78-7-9-7-10-14--------
A------------------------------
E------------------------------

Then get back to Chorus, repeat Fig. 3, but do not break.
Instead, let ring and after that, do this:

E------------------------------------------
B-------------------------------------------
G--7777777777777777b---7-9)-7b---7777\------
D--7777777777777777b---7-9)-7b---7777\------
A--5555555555555555b---5-7)-5b---5555\------
E------------------------------------------

Whalah!! End of song! Any comments, suggestions? You can reach me
        at this e-mail ad: stereo_pump@swirve.com


             -------*****GudBye!!!!----------
Comments