Slapshock - Push Me Chords & Tabs

 

Push Me Chords & Tabs

Slapshock Chords & Tabs

Version: 2 Type: Tab 0 ratings
1 star 2 stars 3 stars 4 stars 5 stars
comments

Push Me Tab

   
SLAPSHOCK.COM

 PUSH ME
Guitar Tabs
Transcribed by: Jerry Basco 
TUNING: D G C F A D (whole step down)

INTRO:
D|-----------------------------------------------------| |--------------|
A|-----------------------------------------------------| |--------------|
F|-----------------------------------------------------| |--------------|
C|-------------------------------------------------10--| |--------7--9--|
G|--8^7------8^7-8^7------8^7-8^7------8^7-8^7------8--| |--7--8--------|
D|------0--0---------0--0---------0--0----------0-0----| |--------------|
(tremolo efx)
D|-----(7)----------(7)----------(7)--------------(7^8)---|
A|--------------------------------------------------------|
F|--------------------------------------------------------|
C|-------------------------------------------------10-----|
G|--8^7------8^7-8^7------8^7-8^7------8^7-8^7------8-----|
D|------0--0---------0--0---------0--0---------0-0--------|

(....................................................4x)
D|-------------------------------------------------------------------------------------------|
A|-------------------------------------------------------------------------------------------|
F|-------------------------------------------------------------------------------------------|
C|------------------7-7-7-7-9-9-9-9--2-2-2--2-2-2--2-2-2--2-2-2--3-3-3--3-3-3--3-3-3--3-3-3--|
G|--7-7-7-7-8-8-8-8------------------2-2-2--2-2-2--2-2-2--2-2-2--3-3-3--3-3-3--3-3-3--3-3-3--|
D|-----------------------------------0-0-0--0-0-0--0-0-0--0-0-0--1-1-1--1-1-1--1-1-1--1-1-1--|

VERSE:
D|------------| |--12/--13----(12-10-12-10)--|
A|------------| |----------------------------|
F|--9-----10--| |----------------------------|
C|------------| |----------------------------|
G|--7------8--| |----------------------------|
D|------------| |----------------------------|
(tremolo efx) (flanger efx.............)
PRE-CHORUS:
D|--------------------------------------------------------------------|
A|--------------------------------------------------------------------|
F|--------------------------------------------------------------------|
C|------------------7-7-7-7--9-9-9-9-----------------7-7-7-7-9-9-9-9--|
G|--7-7-7-7-8-8-8-8------------------7-7-7-7-8-8-8-8------------------|
D|--------------------------------------------------------------------|
[ Tab from: http://www.guitartabs.cc/tabs/s/slapshock/push_me_tab_ver_2.html ]
CHORUS:
D|-----(7)----------(7)----------(7)--------------(7^8)---|
A|--------------------------------------------------------|
F|--------------------------------------------------------|
C|-------------------------------------------------10-----|
G|--8^7------8^7-8^7------8^7-8^7------8^7-8^7------8-----|
D|------0--0---------0--0---------0--0---------0-0--------|

AD LIB:
D|----------x--------19-19-------------------------|
A|----------x--------------------------------------|
F|----------x--16-16--------9--10--14--16--17--16--|
C|-------------------------------------------------|
G|--2-2-3-2-----------------7---8--12--14--15--14--|
D|--0-0-1-0----------------------------------------|

D|-------------------x--------19-19-------------------------|
A|-------------------x--------------------------------------|
F|-------------------x--16-16--------9--10--14--16--17--16--|
C|----------------------------------------------------------|
G|--2-2-3-2--2-2-3-2-----------------7---8--12--14--15--14--|
D|--0-0-1-0--0-0-1-0----------------------------------------|

D|--------------------x--------19-19-------------------------|
A|--------------------x--------------------------------------|
F|--------------------x--16-16--------9--10--14--16--17--16--|
C|-----------------------------------------------------------|
G|--2-2-3-2---2--2--2-----------------7---8--12--14--15--14--|
D|--0-0-1-0---0--0--0----------------------------------------|

BRIDGE:(..........................8x) (fade in......................)
D|------7-----7------7--------7---||--------------------------------|
A|--------------------------------||--------------------------------|
F|--------------------------------||--------------------------------|
C|---9------9---9-10---10---9-----||--------------7-7-7-9-9-9-10-9--|
G|--7-----7-----7--8------7-------||--7-7-7-8-8-8-------------------|
D|--------------------------------||--------------------------------|
Guitar 1 ............clean tone) Guitar 2
D|--------------------------------| |-----------------|
A|--------------------------------| |-----------------|
F|--------------------------------| |-----------------|
C|--------------7-7-7-9-9-9-10-9--| |--------------7--|
G|--7-7-7-8-8-8-------------------| |--7-7-7-8-8-8----|
D|--------------------------------| |-----------------|

OUTRO:
D|--------------------------------------------------------|
A|--------------------------------------------------------|
F|--------------------------------------------------------|
C|--------------------------------------------------------|
G|--3---2--2-3---3---2--2-3---3---2--2-3---3---2-2-2-3-2--|
D|--1^0-0--0-1^0-1^0-0--0-1^0-1^0-0--0-1^0-1^0-0-0-0-1-0--|

Song Structure: Legend:
Intro ^ = hammer on/off
Verse x = behind fret nut
Pre-chorus
Chorus
Verse
Pre-chorus
Chorus
Ad lib
Bridge
Chorus
Outro
Comments